Oops, an error
Loading. Please wait.

Lost Tab

493 views 3 this week
no commentswrite comment
1 2 3 4 5
please rate
add to favorites
launch autoscroll
font size
0
reset
how to read this tab
guitar tuner
Autoscroll
slow
fast
+/-
esc
set tempo
stop
Help us to improve Ultimate-Guitar.com Take our survey!
×
Author
Difficulty
zemur 46
intermediate
----------------------------------------------------------------------------
                               LOST - Strung Out
----------------------------------------------------------------------------
Esta cancion es muy buena

:--------------------------------A-----------------------------------------:
:--------------------------------------------------------------------------:
:--------------------------------------------------------------------------:
:-------3-3-3--------------------3-3-3--5-5-5-5-5---------3-3-3------------:
:-5-5-5-1-1-1--3-3-3-3-3--5-5-5--1-1-1--3-3-3-3-3--5-5-5--1-1-1--3-3-3-3-3-:
:-3-3-3--------1-1-1-1-1--3-3-3--------------------3-3-3---------1-1-1-1-1-:

:------------------:  :------------------B---------------------:
:------------------:  :----------------------------------------:
:------------------:  :----------------------------------------:
:-8-8-8-8--7-7-7-7-:  :----------------------------5-5--7-7--5-:     
:-6-6-6-6--5-5-5-5-:  :-5-5-5-5--3-3-3-3--2-2-2-2--3-3--5-5--3-:
:------------------:  :-3-3-3-3--1-1-1-1--0-0-0-0--------------:

:----------------------C----------------------------:
:---------------------------------------------------:
:---------------------------------------------------:
:-4-4-4-4--11-11-11-11--9-9-9-9--8-8-8--6--8-8-8--6-:
:-2-2-2-2--9--9--9--9---7-7-7-7--6-6-6--4--6-6-6--4-:
:---------------------------------------------------:

:-------------------D------------------------:
:--------------------------------------------:
:--------------------------------------------: 
:-4-4-4-4--11-11-11-11--8-8-8-8--10-10-10-10-:
:-2-2-2-2--9--9--9--9---6-6-6-6--8--8--8--8--:
:--------------------------------------------:

:--------------------------------E--------------------------------------:
:-----------------------------------------------------------------------:
:-----------------------------------------------------------------------:
:-3-3-3-3--10-10-10-10--8-8-8-8--3-3-3-3--3-3-3-3--10-10-10-10--8-8-8-8-:
:-1-1-1-1--8--8--8--8---6-6-6-6--1-1-1-1--1-1-1-1--8--8--8--8---6-6-6-6-:
:-----------------------------------------------------------------------:

:----------------------:
:----------------------:
:----------------------:
:-10-10-10-10--3-3-3-3-:
:-8--8--8--8---1-1-1-1-:
:----------------------:

SOLO..
:------------------------------F------------------------------:
:-------------------------------------------------------------:
:------------------------------7-9-7--------------------------:
:-----4---4-5-4---4--------7-9-------9-7----7-9-----------7---:
:-5-7---7-------7---7-5------------------9------9-7---7-9---9-:
:---------------------------------------------------9---------:

:------------------G-----------------:
:------------------------------------:
:------------------------------------:
:------------------------------------:
:-5-5-5-5--3-3-3-3--2-2-2-2--3-3-3-3-:
:-3-3-3-3--1-1-1-1--0-0-0-0--1-1-1-1-:

:----------------------------------------:
:----------------------------------------:
:----------------------------------------:
:-10-10-10-10--8-8-8-8--6-6-6-6--8-8-8-8-:
:-8--8--8--8---6-6-6-6--4-4-4-4--6-6-6-6-:
:----------------------------------------:

----------------------------------------------------------------------------
Saludos para mis amigos del pichi zerox shadow
Gracis por todo
Suggest correction new What's this?
You can suggest a correction to this tab. Community and Mods will review your correction and vote to approve or reject it.
comments
We did not receive enough feedback on this tab! Please rate:
print report bad tab
1 2 3 4 5
guest
You may want to rate the tab now too:
select rating
Please do not post tabs as comments. Select "correction" instead!