Oops, an error
Loading. Please wait.

Never Good Enough Tab

437 views 1 this week
no commentswrite comment
1 2 3 4 5
please rate
add to favorites
launch autoscroll
font size
0
reset
how to read this tab
guitar tuner
Autoscroll
slow
fast
+/-
esc
set tempo
stop
Help us to improve Ultimate-Guitar.com Take our survey!
×
Contributor
andr3s 209
* Artist: Strung Out
* Song Title: Never Good Enough
* Album: Suburban Teenage Wasteland Blues

Intro Riff (0:00) 

Rob: 
    								 (2x)
d|------------------------------------5h7p5...----------------------|
A|-10...------------------------------------------------------------|
F|--x---------------------------------------------------------------|
C|--7...------------------------------------------------------------|
G|------------------------------------------------------------------|
D|------------------------------------------------------------------|
-Rob's pick scrape starts at (0:20)-

Jake:
								 (2x)
d|------------------------------------------------------------------|
A|------------------------------------------------------------------|
F|-14...------------------------------------------------------------|
C|--x---------------------------------------------------------------|
G|-12...------------------------------------------------------------|
D|------------------------------------------------------------------|
-Jake's pick scrape starts at (0:22)-

Verse Riff (0:24)

Jake & Rob:
					  (2x)
d|-------------------------------------------|
A|-------------------------------------------|
F|-------------------------------------------|
C|---------------77777---------11111111-7777-|
G|-77777777-4444-55555-77777777-9-9-9-9-5555-|
D|-55555555-2222-------55555555--------------|

Chorus Riff (0:35)

Jake & Rob:

d|------------------------------------------------------------|
A|------------------------------------------------------------|
F|------------------------------------------------------------|
C|-44-77-----------77----141414------77-----------7777-999999-|
G|-22-55-777977-22-55-77-121212---44-55-77797-555-5555-777777-|
D|-------555755-------55----------22----55575-333------000000-|

Rob's Solo (0:46)

		     (2x)
d|-----------------------|
A|-----------------------|
F|--6-7--6-7--6-7--------|
C|-7----7----4------7-7--| 
G|----------------5------|
D|-----------------------|
-Jake plays the verse riff under the solo-

Verse Riff Repeated (0:51)

-This time the first chord is palm muted-

Chorus Riff Repeated (1:03)


Bass Solo Riff (1:15)

Jake & Rob:
	         (8x)
d|-------------------|
A|-------------------|
F|-1010101010101010--|
C|--9-9-9-9-9-9-9-9--|
G|--7-7-7-7-7-7-7-7--|
D|-------------------|

Bridge Riff (1:25)

Jake & Rob:
			(3x)
d|-------------------------|-------------------|
A|----------------------10-|-1010101010101010--|
F|-----------------------9-|--9-9-9-9-9-9-9-9--|
C|-7777-7777-7777-777(7)-7-|--7-7-7-7-7-7-7-7--|
G|-0000-0000-0000-000(0)---|-------------------|
D|-------------------------|-------------------|
   .... .... .... ....

Octave Lead (1:36)

Jake & Rob:

d|--------------------------------------------------------------|
A|--------------------------------------------------------------|
F|-14-141411-11111113-1313-9-99--14-141411-11111113/14-13-1313--|
C|--x--x-x-x--x-x-x-x--x-x-x-xx---x--x-x-x--x-x-x-x--x--x--x-x--|
G|-12-1212-9--9-9-911-1111-7-77--12-1212-9--9-9-911/12-11-1111--|
D|--------------------------------------------------------------|

d|------------------------------------------------------|
A|------------------------------------------------------|
F|-14-141411-11111113-1313-9-99--7777-999911111111-14R--|
G|--x--x-x-x--x-x-x-x--x-x-x-xx--xxxx-xxxx-x-x-x-x--x---|
C|-12-1212-9--9-9-911-1111-7-77--5555-7777-9-9-9-9-12R--|
D|------------------------------------------------------|

Chorus Riff Repeated (1:46)


Outro Riff (1:57)


Jake:
     	            (2x)
d]----------------------|------------------------------------------------------------|
A]----------------------|--------------7-7h8p7---9-10--------------------1010--------|
F]--6-7--6-7--6-7-------|---6-7--6-7-7---------9--------6-7--6-7----------9-9--------|
C]-7----7----4------7-7-|--7----7----------------------7----7---------777-7-7--7...--|
G]----------------5-----|-----------------------------------------444-555------7...--|
D]----------------------|-----------------------------------------222----------5...--|
								           . .
Rob:
		    (3x)
d|---------------------|------------------------------|
A|---------------------|------------------------------|
F|---------------------|------------------------------|
C|----------------7777-|---------------777------7...--|
G|-7777-7777-4444-5555-|-7777-7777-444-555-7-7--7...--|
D|-5555-5555-2222------|-5555-5555-222-----5-5--5...--|
					   . .		

* WWW.STRUNGOUT.COM
* Copyright ©1996 - Strung Out
comments
We did not receive enough feedback on this tab! Please rate:
print report bad tab
1 2 3 4 5
I want to post or [tab]
guest
You may want to rate the tab now too:
select rating
Please do not post tabs as comments. Select "correction" instead!