Oops, an error
Loading. Please wait.

Novella Tab

304 views 3 this week
no commentswrite comment
1 2 3 4 5
please rate
add to favorites
launch autoscroll
font size
0
reset
how to read this tab
guitar tuner
Tab Pro tools
  • play this tab
  • loop segment
  • change instrument
  • show fretboard
  • metronome
×
Best way to learn
"Novella"
Autoscroll
slow
fast
+/-
esc
set tempo
stop
Contributor
Difficulty
Tuning
intermediate
D G C F A D
-------------------------------------------------------------------------------
			    Novella - Strung Out
-------------------------------------------------------------------------------
Tabbed by: dvsgod
 
Guitar 1 (Rhythm Only)

Tuning: Tuned To D

  Intro:

e|---------------------------------------------|
B|---------------------------------------------|
G|------------------------------------55--55---|
D|-2--xx--2--xx--2--101010--2--xx--2--55--55---|
A|-2--xx--2--xx--2--101010--2--xx--2--33--33---|
E|-1--xx--1--xx--1-- 8 8 8--1--xx--1--33--33---|
							
e|---------------------------------------------|
B|---------------------------------------------|
G|---------------------------------------------|
D|-2--xx--2--xx--2--xx--\--5555--\--888--------|   x2
A|-2--xx--2--xx--2--xx--\--5555--\--888--------|
E|-1--xx--1--xx--1--xx--\--3333--\--666--------|

  Verse:

  My dreams are cold and crawl with regret
  This  chapter  covers  time      without you
e|---------------------------------------------|
B|---------------------------------------------|
G|---------------------------------------------|
D|--2-------------------------------2----------|
A|--2-------------------------------2----------|
E|--1-------------------------------1----------|

  Black and white, there's still us shouting out
  You are a ghost within these pages I call
e|---------------------------------------------|
B|---------------------------------------------|
G|---------------------------------------------|
D|---------2-----------------------------------|
A|---------2-----------------------------------|
E|---------1-----------------------------------|

  We might not make it through
  home   That's nothing new
e|---------------------------------------------|
B|---------------------------------------------|
G|---------------------------------------------|
D|-8-------------------5-----------------------|   x2
A|-8-------------------5-----------------------|
E|-6-------------------3-----------------------|

  Pre Chorus:

  Cause I'm inclined to say I don't mind
e|--------------------------------------------|
B|--------------------------------------------|
G|--------------------------------------------|
D|-88888888888888888888888888-555555555555555-|
A|-88888888888888888888888888-555555555555555-|
E|-66666666666666666666666666-333333333333333-|

  That you still come around this place
e|--------------------------------------------|
B|--------------------------------------------|
G|--------------------------------------------|
D|-55555555-88888888888888888888888888888888--|
A|-55555555-88888888888888888888888888888888--|
E|-33333333-66666666666666666666666666666666--|

  survive me every time
e|--------------------------------------------|
B|--------------------------------------------|
G|--------------------------------------------|
D|-5555555555555555-10101010------------------|
A|-5555555555555555-10101010------------------|
E|-3333333333333333- 8 8 8 8------------------|

  Chorus:

  Every scar  and  all  the  pain  that  we
 Well it all seemed far, the distance we are   
e|---------------------------------------------|
B|---------------------------------------------|
G|---------------------------------------------|
D|------22222222-------------1010101010101010--|
A|------22222222-------------1010101010101010--|
E|------11111111------------- 8 8 8 8 8 8 8 8--|

  find          in between                    
  Another world, another time 
e|---------------------------------------------|
B|---------------------------------------------|
G|---------------------------------------------|
D|-88888888------55555555----------------------|
A|-88888888------55555555----------------------|
E|-66666666------33333333----------------------|

  All the words  like  Ra   zor blades
  Like another life we left behind   
e|---------------------------------------------|
B|---------------------------------------------|
G|---------------------------------------------|
D|--------22222222-----10---8--555-------------|   x2
A|--------22222222-----10---8--555-------------|
E|--------11111111----- 8---6--333-------------|


e|---------------------------------------------|
B|---------------------------------------------|
G|------------------------------------55--55---|
D|-2--xx--2--xx--2--101010--2--xx--2--55--55---|
A|-2--xx--2--xx--2--101010--2--xx--2--33--33---|
E|-1--xx--1--xx--1-- 8 8 8--1--xx--1--33--33---|

e|---------------------------------------------|
B|---------------------------------------------|
G|---------------------------------------------|
D|-2--xx--2--xx--2--xx--\--5555--\--888--------|
A|-2--xx--2--xx--2--xx--\--5555--\--888--------|
E|-1--xx--1--xx--1--xx--\--3333--\--666--------|

  Verse:

  It's not  enough  to  say  I  know you
  Like a riddleated pages,      nothing new
e|---------------------------------------------|
B|---------------------------------------------|
G|---------------------------------------------|
D|--2----------------------------2-------------|
A|--2----------------------------2-------------|
E|--1----------------------------1-------------|

  It's like you have all your secrets I don't 
  A silent gesture, screaming out my name  you
e|---------------------------------------------|
B|---------------------------------------------|
G|---------------------------------------------|
D|---------2-----------------------------------|
A|---------2-----------------------------------|
E|---------1-----------------------------------|

  know  and  never    will
  know this one's for you
e|---------------------------------------------|
B|---------------------------------------------|
G|---------------------------------------------|
D|-8-------------------5-----------------------|   x2
A|-8-------------------5-----------------------|
E|-6-------------------3-----------------------|

  Pre Chorus:

  Cause I'm inclined to say I don't mind
e|--------------------------------------------|
B|--------------------------------------------|
G|--------------------------------------------|
D|-88888888888888888888888888-555555555555555-|
A|-88888888888888888888888888-555555555555555-|
E|-66666666666666666666666666-333333333333333-|

  That you still keep me guessing every
e|--------------------------------------------|
B|--------------------------------------------|
G|--------------------------------------------|
D|-55555555-88888888888888888888888888888888--|
A|-55555555-88888888888888888888888888888888--|
E|-33333333-66666666666666666666666666666666--|

  chapter  every    time
e|--------------------------------------------|
B|--------------------------------------------|
G|--------------------------------------------|
D|-5555555555555555-10101010------------------|
A|-5555555555555555-10101010------------------|
E|-3333333333333333- 8 8 8 8------------------|

  Chorus:

  Every scar  and  all  the  pain  that  we
 Well it all seemed far, the distance we are   
e|---------------------------------------------|
B|---------------------------------------------|
G|---------------------------------------------|
D|------22222222-------------1010101010101010--|
A|------22222222-------------1010101010101010--|
E|------11111111------------- 8 8 8 8 8 8 8 8--|

  find          in between                    
  Another world, another time 
e|---------------------------------------------|
B|---------------------------------------------|
G|---------------------------------------------|
D|-88888888------55555555----------------------|
A|-88888888------55555555----------------------|
E|-66666666------33333333----------------------|

  All the words  like  Ra   zor blades
  Like another life we left behind   
e|---------------------------------------------|
B|---------------------------------------------|
G|---------------------------------------------|
D|--------22222222-----10---8--555-------------|
A|--------22222222-----10---8--555-------------|   x2
E|--------11111111----- 8---6--333-------------|

  Bridge:

     	 Well I got my wings and all my good luck 
e|---------------------------------------------|
B|---------------------------------------------|
G|---------------------------------------------|
D|-12121212-----8888----------2222-------------|
A|-12121212-----8888----------2222-------------|
E|-10121212-----6666----------1111-------------|

  things     Pressed Between a single page  in
  hold this page any longer       Any Longer
e|---------------------------------------------|
B|---------------------------------------------|
G|---------------------------------------------|
D|-10101010----------12121212---------8888-----|
A|-10101010----------12121212---------8888-----|
E|- 8 8 8 8----------12121212---------6666-----|

  melodrama         Well This
e|---------------------------------------------|
B|---------------------------------------------|
G|---------------------------------------------|
D|---2222---10101010---------------------------|
A|---2222---10101010---------------------------|
E|---1111--- 8 8 8 8---------------------------|

   binding's not at all  what  it used to be Can't 
e|---------------------------------------------|
B|---------------------------------------------|
G|---------------------------------------------|
D|-12121212---------8888-----------2222--------|
A|-12121212---------8888-----------2222--------|
E|-10121212---------6666-----------1111--------|

  hold this page any longer       Any Longer
e|---------------------------------------------|
B|---------------------------------------------|
G|---------------------------------------------|
D|-10101010----------8888---------10101010--/--|
A|-10101010----------8888---------10101010--/--|
E|- 8 8 8 8----------6666--------- 8 8 8 8--/--|

  Chorus:

   This  story  I  too shall breathe
e|---------------------------------------------|
B|---------------------------------------------|
G|---------------------------------------------|
D|-2 let ring----------1010101010101010--------|
A|-2 let ring----------1010101010101010--------|
E|-1 let ring---------- 8 8 8 8 8 8 8 8--------|

  The chapters four, five, and three 
e|---------------------------------------------|
B|---------------------------------------------|
G|---------------------------------------------|
D|----88888888------55555555-------------------|
A|----88888888------55555555-------------------|
E|----66666666------33333333-------------------|

  We've done it all with every start   
e|---------------------------------------------|
B|---------------------------------------------|
G|---------------------------------------------|
D|------22222222-----10---8----555-------------|
A|------22222222-----10---8----555-------------|
E|------11111111----- 8---6----333-------------|

  The rest is human, dark and bleak
e|---------------------------------------------|
B|---------------------------------------------|
G|---------------------------------------------|
D|----22222222-------1010101010101010----------|
A|----22222222-------1010101010101010----------|
E|----11111111------- 8 8 8 8 8 8 8 8----------|

  With fiction, fodder, and disbelief 
e|---------------------------------------------|
B|---------------------------------------------|
G|---------------------------------------------|
D|------88888888-----------55555555------------|
A|------88888888-----------55555555------------|
E|------66666666-----------33333333------------|

  And somehow we always make it through   
e|---------------------------------------------|
B|---------------------------------------------|
G|---------------------------------------------|
D|------22222222--------10---8--555------------|
A|------22222222--------10---8--555------------|
E|------11111111-------- 8---6--333------------|

  Outro:

e|-------------------------|     -----|
B|-------------------------|     -----|
G|-------------------------|     -----|
D|-2--xx--2--xx--2--101010-|  x4 -/-2-|
A|-2--xx--2--xx--2--101010-|     -/-2-|
E|-1--xx--1--xx--1-- 8 8 8-|     -/-1-|




************************************

| /   slide up
| \   slide down
| h   hammer-on
| p   pull-off
| ~   vibrato
| +   harmonic
| x   Mute note
| b   Bend
| pb  Pre-bend
| br  Bend release
| pbr Pre-bend release
| brb Bend release bend

************************************
comments
We did not receive enough feedback on this tab! Please rate:
print report bad tab
1 2 3 4 5
I want to post or [tab]
guest
You may want to rate the tab now too:
select rating
Please do not post tabs as comments. Select "correction" instead!