Oops, an error
Loading. Please wait.

Radio Suicide Bass Tab

version 1
version 1

Whole song

Interactive

235 views 1 this week
no commentswrite comment
1 2 3 4 5
3 more votes to show rating
add to favorites
launch autoscroll
font size
0
reset
guitar tuner
Autoscroll
slow
fast
+/-
esc
set tempo
stop
Help us to improve Ultimate-Guitar.com Take our survey!
×
Author
My first tab. I'm not sure of any of these parts but it sounds good to me.

MAIN RIFF X2
------------------------------|
------7-7-7-7-9-9-9995-4-5-7--|
5555-5------------------------|
------------------------------|

------------------------------|
------7-7-7-7-9-9-97-5-4------|
5555-5--------------9----7-5--|
------------------------------|

VERSE
------------------------------------------------------------------| X2
------------------------------------------------------------------|
6666666666666666--------------------------------------------------|
----------------666666666666666644444444444444446666666666666666--|

MAIN RIFF

VERSE2
-----------------------------------------------------------|
-----------------------------------------------------------|
6666666666666666--------------------------------5-55-------|
----------------66666666666666664444444444444444-----5-5-5-|

-----------------------------------------------------------|
-----------------------------------------------------5-5-5-|
6666666666666666--------------------------------7-77-------|
----------------66666666666666664444444444444444-----------|

MAIN RIFF X2

BRIDGE
--------------------------------| X3
--------------------------------|
----------------5-5-5-5----2-2--|
555-555-555-555--------3-3------|

-------------------------|
2-2--2--2-4--5-5--5-7--7-|
-------------------------|
-------------------------|

--------------------------------| X3
--------------------------------|
5-5-------------2-2--------5-5--|
----2-23-33-3-3-----3-35-55-----|

--------------------------|
--------------------------|
5-5-------------2---------|
----2223-33-3-3---5-3-55~-|

MAIN RIFF X2

"BREAKDOWN"
-------------------------------------------------------------------------|X3
-------------------------------------------------------------------------|
6~-----------------------------------------------------------------------|
-------------------6~----------------4~----------------6~----------------|

-----------------------------------------------------------------|
-----------------------------------------------------------------|
6~---------------------------------------------------------------|
-------------------6~----------------4~----------------666666666-|

MAIN RIFF

ENDING
------------------------------|
------7-7-7-7-9-9-9995-4-5-7--|
5555-5------------------------|
------------------------------|

-------------------------|
------7-7-7-7-9-9-9-95~--|
5555-5-------------------|
-------------------------|

That's it!
Suggest correction
Give kudos to tab author, rate the tab!
1 2 3 4 5
comments
print report bad tab
guest
You may want to rate the tab now too:
select rating
Wanna post a correction for this tab? Suggest correction