Oops, an error
Loading. Please wait.

Razorblade Bass Tab

391 views 1 this week
no commentswrite comment
1 2 3 4 5
3 more votes to show rating
add to favorites
launch autoscroll
font size
0
reset
guitar tuner
Autoscroll
slow
fast
+/-
esc
set tempo
stop
Help us to improve Ultimate-Guitar.com Take our survey!
×
Author
Difficulty
Tuning
intermediate
E A D G B E
Tabbed By : Bryan B
e-mail: gunz492@yahoo.com

From the album "Element of Sonic Defiance"

Tuning: Full D (down full step)
This song can also be played in standard, as long as the notes are transposed.  The song 
makes it look complicated, but it's basically the same riff over and over again.  The 
is played really fast, so watch your timing.  Good luck, and please rate this tab!

Order of song:
Intro
Intro 2
Pre-verse x2
Verse x4
Chorus
Post-chorus
Verse x2
Verse mod
Verse x3
Chorus x3
Post-chorus
Pre-solo x2
Solo x2
Bridge x3
Bridge 2
Bridge 3
Outro

Intro:
F|----------------------------------------------------------------|
C|----------------------------------------------------------------|
G|----------------------------------------------------------------|
D|--7--7--7~~~~~~~--7--7--7~~~~~~~--7--7--7~~~~~~~--7--7--7~~~~~~~|

Intro 2:
F|----------------------------------------------------------------|
C|----------------------------------------------------------------|
G|----------------------------------------------------------------|
D|7--7--7~~~~~~~~~7--7--7~~~~~~~~3--3--3~~~~~~~~~5--5--5~~~~~~~~~~|

Pre-verse:
F|----------------------------------------------------------------|
C|----------------------------------------------------------------|
G|----------------------------------------------------------------|
D|7--77-7~~~7-7---7--77-7~~~7-7---3--33-3~~~3-3---5--55-5~~~5-5---|

Verse:
F|----------------------------------------------------------------|
C|----------------------------------------------------------------|
G|----------------------------------------------------------------|
D|7--77-7~~~7-7---7--77-7~~~7-7---3--33-3~~~3-3---5--55-5~~~5-5---|

Chorus:
F|----------------------------------------------------------------|
C|----------------------------------------------------------------|
G|------------------------------------------------5--55-5~~~5-5---|
D|3--33-3~~~3-3---5--55-5~~~5-5---7--77-7~~~7-7-------------------|

Post-chorus:
F|----------------------------------------------------------------|
C|----------------------------------------------------------------|
G|--------------------------------5~~~~~~~~~~~~~~~~~~~~~~~~~~~~~~~|
D|3--33-3~~~3-3---5--55-5~~~5-5-----------------------------------|

Verse mod:
F|----------------------------------------------------------------|
C|----------------------------------------------------------------|
G|----------------------------------------------------------------|
D|7~~~~~~~~~~~~~~~~~~~~~~~~~~~~~~~3--33-3~~~3-3---5--55-5~~~5-5---|

Pre-solo:
F|----------------------------------------------------------------|
C|----------------------------------------------------------------|
G|----------------------------------------------------------------|
D|7--7--7---------7--7--7---------3--3--3---------5--5--5---------|

Solo:
F|----------------------------------------------------------------|
C|----------------------------------------------------------------|
G|----------------------------------------------------------------|
D|7--77-7~~~7-7---7--77-7~~~7-7---3--33-3~~~3-3---5--55-5~~~5-5---|

Bridge:
F|----------------------------------------------------------------|
C|--------------------------------5-555-555-555-555-555-555-557\--|
G|5-555-555-555-557-777-777-777-77--------------------------------|
D|----------------------------------------------------------------|

Bridge 2:
F|----------------------------------------------------------------|
C|--------------------------------5--5--5---------5--5--5-7--7--7-|
G|5--5--5---------7--7--7-----------------------------------------|
D|----------------------------------------------------------------|

Bridge 3:
F|----------------------------------------------------------------|
C|----------5h7p5-----------------5-5-5-5-5-5-5-5-5-5-5-5-5-5-5-5-|
G|5--5--5---------7--7--7-----------------------------------------|
D|----------------------------------------------------------------|

Outro:
F|----------------------------------------------------------------|
C|----------------------------------------------------------------|
G|----------------------------------------------------------------|
D|7--7--7~~~~~~~~~7--7--7~~~~~~~~3--3--3~~~~~~~~~5--5--5~~~~~~~~~~|

F|----------------------------------------------------------------|
C|----------------------------------------------------------------|
G|----------------------------------------------------------------|
D|7--7--7~~~~~~~~~7--7--7~~~~~~~~3--3--3~~~~~~~~~5--5--5~~~~~~~~~~|

F|----------------------------------------------------------------|
C|----------------------------------------------------------------|
G|----------------------------------------------------------------|
D|7-7-7-7-7-7-7-7-7-7-7-7-7-7-7-7-3-3-3-3-3-3-3-3-5-5-5-5-5-5-5-5-|

F|----------------------------------------------------------------|
C|----------------------------------------------------------------|
G|----------------------------------------------------------------|
D|7-7-7-7-7-7-7-7-7-7-7-7-7-7-7-7-3-3-3-3-3-3-3-3-5-5-5-5-5-5-5-5-|

F|----------------------------------------------------------------|
C|9--9--9---9-9-9-9-9-9-9-9-1211----------------------------------|
G|------------------------------12--------------------------------|
D|--------------------------------3-3-3-3-3-3-3-3-5-5-5-5-5-5-5-5-|

F|----------------------------------------------------------------|
C|----------------------------------------------------------------|
G|----------------------------------------------------------------|
D|7-7-7-7-7-7-7-7-7-7-7-7-7-7-7-7-3~~~~~~~~~~~~~~~~~~~~~~~~~~~~~~~|
Suggest correction
Give kudos to tab author, rate the tab!
1 2 3 4 5
comments
print report bad tab
guest
You may want to rate the tab now too:
select rating
Wanna post a correction for this tab? Suggest correction