Oops, an error
Loading. Please wait.

Your Worst Mistake Tab

28 views 3 this week
no commentswrite comment
1 2 3 4 5
3 more votes to show rating
add to favorites
launch autoscroll
font size
0
reset
how to read this tab
guitar tuner
Autoscroll
slow
fast
+/-
esc
set tempo
stop
Help us to improve Ultimate-Guitar.com Take our survey!
×
Author
Difficulty
Tuning
intermediate
D G C F A D
Tabbed by: Gaggson
E-mail: gaggson1@gmail.com

Tuning: One Step down


[Intro 1]
                                     |----PM----|  
d|---------------------------------------------------------------------------|
B|---------------------------------------------------------------------------|
F|--5-5-5------5-5-5--5-4-4---5-5-4------------------------------------------|
C|--2-2-2------3-3-3--3-3-3---3-3-3------------------------------------------|
G|--0-0-0-3/5--5-5-5--5-5-5---5-5-5--5-5-5-5-5-5-----------------------------|
D|----------------------------3-3-3--3-3-3-3-3-3-----------------------------|

[Intro 2]
                                       |-PM-| 
d|---------------------------------------------------------------------------|
B|---------------------------------------------------------------------------|
F|--5-5-5------5-5-5--5-4---7-7----7-7---------------------------------------|
C|--2-2-2------3-3-3--3-3---7-7----7-7-7-7-7-7/10----------------------------|
G|--0-0-0-3/5--5-5-5--5-5-5-5-5--5-5-5-5-5-5-9/8-----------------------------|
D|------------------------3--------------------------------------------------|


************************************

| /   Slide up
| PM  Palm mute

************************************
Suggest correction
Give kudos to tab author, rate the tab!
1 2 3 4 5
comments
print report bad tab
guest
You may want to rate the tab now too:
select rating
Wanna post a correction for this tab? Suggest correction