Oops, an error
Loading. Please wait.

Centellas tab

version 1
version 1

Whole song

80 views 3 this week
no commentswrite comment
1 2 3 4 5
2 more votes to show rating
add to favorites
×
Save as Personal and add changes to this tab that will be seen only by you. Learn more ›
×
You can save this tab as Personal to edit and correct it or add notes. All changes will be seen only by you. Learn more »
launch autoscroll
font size
0
reset
how to read this tab
guitar tuner
edit
Autoscroll
slow
fast
+/-
esc
set tempo
stop
Author
Difficulty
-------------------------------------------------------------------------------
                          Centellas - Strunz and Farah
-------------------------------------------------------------------------------

Tabbed by: Ashley
E-mail: AshJamBor@gmail.com

My version of Centellas by Strunz and Farah. https://www.youtube.com/watch?v=Fpl-J7NncoU

Tuning: Standard, 182bpm


Intro 3/4
        |       |       |         |       |       |
|-5-6-|-8-6-5-----------5-------|--------------------------|
|-----|-------8-6-5-6-8---6-8-5-|-8-6-5-----------5--------|
|-----|-------------------------|-------7-6-5-6-7---6-7-5--|
|-----|-------------------------|--------------------------|
|-----|-------------------------|--------------------------|
|-----|-------------------------|--------------------------|

  |       |       |         |       |       |
|-------------------------|-------------------------|
|-------------------------|-------------------------|
|-7-6-5-----------5-------|-------------------------|
|-------8-7-5-7-8---7-8-5-|-8-7-5-----------5-------|
|-------------------------|-------8-7-5-7-8---7-8-5-|
|-------------------------|-------------------------|

  |       |       |
|-------------------------|
|-------------------------|
|-------------------------|
|-------------------------|
|-8-7-5-------------------|
|-------6-5~~~------------|


Part A1 4/4     
        |       |       |       |         |       |       |       |
|-5-5-|-5---3---------------4-4-4---4-4-|-4-------------------------------|
|-----|---------6---5---6---------------|-----6---5---3---5---6-6-6---6-6-|
|-----|---------------------------------|---------------------------------|
|-----|---------------------------------|---------------------------------|
|-----|---------------------------------|---------------------------------|
|-----|---------------------------------|---------------------------------|

  |       |       |       |         |       |       |       |
|---------------------------------|-----------------------------5-5-|
|-6---5---3---2---3---2-3-5-3-2---|---------------------------------|
|-------------------------------3-|-2-1-2-3-1-3-2-1-2---------------|
|---------------------------------|---------------------------------|
|---------------------------------|---------------------------------|
|---------------------------------|---------------------------------|

  |       |       |       |         |       |       |       |
|-5---3---------------4-4-4---4-4-|-4-------------------------------|
|---------6---5---6---------------|-----6---5---3---5---6-6-6---6-6-|
|---------------------------------|---------------------------------|
|---------------------------------|---------------------------------|
|---------------------------------|---------------------------------|
|---------------------------------|---------------------------------|

  |       |       |       |         |       |       |       |
|---------------------------------|-----------------------------6-6-|
|-6---5---3---2---3---2-3-5-3-2---|---------2-3-2-3-5---------------|
|-------------------------------3-|-2-1-2-3-------------------------|
|---------------------------------|---------------------------------|
|---------------------------------|---------------------------------|
|---------------------------------|---------------------------------|


Part A2
  |       |       |       |         |       |       |         |
|-6---5---------------8-8-8---8-8-|-8---6---------------10-10-10--10-10-|
|---------8---6---8---------------|---------10--8---10------------------|
|---------------------------------|-------------------------------------|
|---------------------------------|-------------------------------------|
|---------------------------------|-------------------------------------|
|---------------------------------|-------------------------------------|

  |       |       |        |            |          |         |     |
|-10--8---------------9-10-12-10-9----|------------9-------------------6-6-|
|---------11--9---11---------------11-|-10-9-10-11---11-10-9-10------------|
|-------------------------------------|------------------------------------|
|-------------------------------------|------------------------------------|
|-------------------------------------|------------------------------------|
|-------------------------------------|------------------------------------|

  |       |       |       |         |       |       |         |
|-6---5---------------8-8-8---8-8-|-8---6---------------10-10-10--10-10-|
|---------8---6---8---------------|---------10--8---10------------------|
|---------------------------------|-------------------------------------|
|---------------------------------|-------------------------------------|
|---------------------------------|-------------------------------------|
|---------------------------------|-------------------------------------|


  |       |       |        |             |          |          |    |
|-10--8---------------9-10-12-13-12-10-|-12-10-9----------9---------------12-|
|---------11--9---11-------------------|---------11-10-11---11-10------15----|
|--------------------------------------|-------------------------------------|
|--------------------------------------|-------------------------------------|
|--------------------------------------|-------------------------------------|
|--------------------------------------|-------------------------------------|


Part B1
  |           |           |           |
|-13-16-13-12-13-16-13-12-13-16-13-12-13---------|
|------------------------------------------14-15-|
|------------------------------------------------|
|------------------------------------------------|
|------------------------------------------------|
|------------------------------------------------|

  |           |           |           |
|-12-13-16-13-12----------12-13-12------------12-|
|----------------15-14-15----------15-14---15----|
|------------------------------------------------|
|------------------------------------------------|
|------------------------------------------------|
|------------------------------------------------|

  |           |           |           |
|-13-16-13-12-13-16-13-12-13-16-13-12-13---12-13-|
|------------------------------------------------|
|------------------------------------------------|
|------------------------------------------------|
|------------------------------------------------|
|------------------------------------------------|

  |           |           |      |
|-15-13-12-15-13-12-13-15-17---------5-5-|
|----------------------------------------|
|----------------------------------------|
|----------------------------------------|
|----------------------------------------|
|----------------------------------------|


Part A1

Part A2


Part B2
  |           |           |           |
|-13-16-13-12-13-16-13-12-13-16-13-12-13---------|
|------------------------------------------14-15-|
|------------------------------------------------|
|------------------------------------------------|
|------------------------------------------------|
|------------------------------------------------|

  |           |           |           |
|-12-13-16-13-12----------12-13-12------------12-|
|----------------15-14-15----------15-14---15----|
|------------------------------------------------|
|------------------------------------------------|
|------------------------------------------------|
|------------------------------------------------|

  |           |           |           |
|-13-16-13-12-13-16-13-12-13-16-13-12-13---------|
|------------------------------------------14-15-|
|------------------------------------------------|
|------------------------------------------------|
|------------------------------------------------|
|------------------------------------------------|

  |           |           |           |
|-12-13-16-13-12-16-13-12-16-13-12------------12-|
|------------------------------------------15----|
|------------------------------------------------|
|------------------------------------------------|
|------------------------------------------------|
|------------------------------------------------|

  |           |           |           |
|-13-16-13-12-13-16-13-12-13-16-13-12-13---------|
|------------------------------------------14-15-|
|------------------------------------------------|
|------------------------------------------------|
|------------------------------------------------|
|------------------------------------------------|

  |           |           |           |
|-12-13-16-13-12----------12-13-12------------12-|
|----------------15-14-15----------15-14---15----|
|------------------------------------------------|
|------------------------------------------------|
|------------------------------------------------|
|------------------------------------------------|

  |           |           |           |
|-13-16-13-12-13-16-13-12-13-16-13-12-13---12-13-|
|------------------------------------------------|
|------------------------------------------------|
|------------------------------------------------|
|------------------------------------------------|
|------------------------------------------------|

  |           |           |      |
|-15-13-12-15-13-12-13-15-17---------|
|------------------------------------|
|------------------------------------|
|------------------------------------|
|------------------------------------|
|------------------------------------|


Part C 5/4 (lead coming soon)
  |       |       |       |       |       
|-1-----1-1-----1-1-----1---1-1---1---1--|\
|-1-----1-1-----1-1-----1---1-1---1---1--| \
|-2-----2-2-----2-2-----2---2-2---2---2--|  \ x5
|-3-----3-3-----3-3-----3---3-3---3---3--|  /
|-3-----3-3-----3-3-----3---3-3---3---3--| /
|-1-----1-1-----1-1-----1---1-1---1---1--|/

  |                    |
|-10-10-10-10-11-8-8-8-8-8-8-8-10-7-7-7-|
|---------------------------------------|
|---------------------------------------|
|---------------------------------------|
|---------------------------------------|
|---------------------------------------|

  |               |                |
|-7-7-7-7-8-7-8-8-8-8-8-8-10-7-7-7-8-7-----------|
|--------------------------------------10-8-10---|
|------------------------------------------------|
|------------------------------------------------|
|------------------------------------------------|
|------------------------------------------------|


Part A1


Solos (improvised)
|A     |Bb7   |Gm    |A     | x4
|Gm    |A     |Bb7   |A     | x2
|Bb7   |A     |Bb7   |A     | x2


Part A1

Part A2

Part B1

Part C

Part A1

Part B2


            
            
Suggest correction
Creating personal tab
Creating personal tab
You can edit any tab online and save it as your Personal.

You can edit, replace or remove any tab part or add personal notes – all changes will be seen only by you.

Personal tabs can be accessed anytime from any device, even offline.
Learn more »
Give kudos to tab author, rate the tab!
1 2 3 4 5
comments
print report bad tab
guest
You may want to rate the tab now too:
select rating
Wanna post a correction for this tab? Suggest correction