Oops, an error
Loading. Please wait.

Calling On You Tab

version 1
version 1

Whole song

Interactive

10,289 views 27 this week
1 commentread comment
1 2 3 4 5
excellent!
x 4
add to favorites
launch autoscroll
font size
0
reset
how to read this tab
guitar tuner
Tab Pro tools
  • play this tab
  • loop segment
  • change instrument
  • show fretboard
  • metronome
Autoscroll
slow
fast
+/-
esc
set tempo
stop
Contributor
Difficulty
Tuning
intermediate
D# G# C# F# A# D#
-----------------------------------------------------------------------
                    Calling On You - Stryper
-----------------------------------------------------------------------
Tabbed by:5150rocker    
Email:5150rocker@sbcglobal.net

Tuning:Standard
  Intro                           
e|--------------------------------------------------------------------|
B|-----------7-----------8-7-------8---7-7h8p7-5h7p5-3h5p3-2h3p2p0h3~-|
G|77~~--7-------7-----7-------7---------------------------------------|
D|77~~----7-------7-----7-------5-5---5-------------------------------|
A|55~~5-------------5-------------------------------------------------|
E|--------------------------------------------------------------------|
 |                                                                    |
e|--------------------------------------------------------------------|
B|--------------------------------------------------------------------|
G|--------------------------------------------------------------------|
D|77------------------------------------------------------------------|
A|55----------------------------55------------------55\---------------|
E|------------------------------33------------------33\---------------|
  
e|----------------------------------------------------------|
B|---------7-------------7-------8-7-5-3-2-0h2h3p2p0-3~~~---|
G|----7-------7------7-------7------------------------------|
D|------7-------7------7-------5-5--5-5-5-5-5---------------|
A|5-5-------------55----------------------------------------|
E|----------------------------------------------------------|
 |                                                          |
e|----------------------------------------------------------|
B|----------------------------------------------------------|
G|----------------------------------------------------------|
D|7777777777777777------------------------------------------|
A|5555555555555555-5555-5555--7---7---7---7---7---7---7-----|
E|-----------------3333-3333--5---5---5---5---5---5---5---5-|

e|---------------------------------------------------------------|
B|---------7-------------7-------8-7-5-3-2-0h2-3~~~3b4r3p2-3~~~--|
G|----7-------7------7-------7-----------------------------------|
D|------7-------7------7-------5-5--5-5-5-5-5--------------------|
A|5-5-------------55---------------------------------------------|
E|---------------------------------------------------------------|
 |                                                               |
e|---------------------------------------------------------------|
B|---------------------------------------------------------------|
G|---------------------------------------------------------------|
D|777766664444-777--------------------------------7----------\---|
A|555544442222-555--5--------7--------------------5----------\---|
E|------------------3--------5-----------------------------------|
   VERSE
e|------------------------------------------|
B|------------------------------------------|play
G|--9---------------------------------------|3x's
D|--9---7-----------------------------------|
A|--7---7----12------12------1212----121212-|
E|------5----101010101010101010101010101010-|
  
e|-------------------------------------------|
B|-------------------------------------------|
G|--9----------------------------------------|
D|--9---7----------------------------5----7--|
A|--7---7----12----------------------5----7--|
E|------5----10-10~9~7~~~9~~~5~~~7~~~3----5--|
   CHORUS                 
e|--------------------------------------------------------------|
B|--------------------------------------------------------------|
G|-------------------------------------------------------7---\--|
D|--7777-7777-7777-777-----------------------------------5---\--|
A|--5555-5555-5555-555-5555-5555-5555-555----------5--7---------|
E|---------------------3333-3333-3333-333-10~9~7~5~3--5---------|
  Play VERSE and CHORUS again
  SOLO Rythym- D G A G A D   

e|--------------------------------------------------------------------|
B|--------------------------------------------------------------------|
G|--------------------------------------------------------------------|
D|-7------------------------------------------------------------------|
A|-5---5---12----7---12121212-12121212-12121212-121212-5555-5555-5555-|
E|-----3---10----5---10101010-10101010-10101010-101010-3333-3333-3333-|

e|-----------------------------|
B|-----------------------------|
G|-----------------------------|
D|------9----------------------|
A|--555-7----7----12----7777-7-|
E|--333------5----10----5555-5-|
  OUTRO play 3x's
e|----------------------------------------------------------|
B|----------------------------------------------------------|
G|----------------------------------------------------------|
D|----------------------------------------------------------|
A|--12121212-12121212-12121212-11111111-9999-9999-9999-7777-|
E|--10101010-10101010-10101010--9-9-9-9-7777-7777-7777-5555-|

e|--------------------------------|
B|--------------------------------|
G|---------------------------2----|
D|----------------------5----2----|
A|--5555-5555-5555-5555-3----0----|
E|--3333-3333-3333-3333-----------|


| /  slide up
| \  slide down
| h  hammer-on
| p  pull-off
| ~  vibrato
| +  harmonic
| x  Mute note
===============================================================================
comments
print report bad tab
1 comment total.
+3 reply
EN_Gtr_Mstr wrote on June 28 2010, 03:09 pm

Stryper forever!!

I want to post or [tab]
guest
You may want to rate the tab now too:
select rating
Please do not post tabs as comments. Select "correction" instead!