Oops, an error
Loading. Please wait.

Heaven tab

by Stryper
31 views 1 this week
no commentswrite comment
1 2 3 4 5
2 more votes to show rating
add to favorites
×
Save as Personal and add changes to this tab that will be seen only by you. Learn more ›
×
You can save this tab as Personal to edit and correct it or add notes. All changes will be seen only by you. Learn more »
launch autoscroll
font size
0
reset
how to read this tab
guitar tuner
edit
Autoscroll
slow
fast
+/-
esc
set tempo
stop
About this tab version
First version posted. Has all riffs and first solo. Was this info helpful? Yes No
Tuned 1/2 Step Down 

[Intro]

eb|-----7--10--12-------------------|-------------------------|
Bb|--------------------8--10--12----|-------------------------|
Gb|---------------------------------|-------------------------|
Db|---------------------------------|--9/11 9---[11-7]--------|
Ab|---------------------------------|-------------------------|
Eb|---------------------------------|-------------------------|

eb|---------------------------------|-------------------------|
Bb|---------------------------------|-------------------------|
Gb|--9----------------7-------------|--5----------------------|
Db|--9----------------7-------------|--5----------------------|
Ab|--7----------------5-------------|--3----------------------|
Eb|---------------------------------|-------------------------|


[Verse]

eb|--------------------------------------------|
Bb|--------------------------------------------|
Gb|----------------------------------7---------|
Db|-------7---9\----x4----5--x-x-5---7---------|
Ab|--x-x--5---7\----------3--x-x-3---5---------|
Eb|--x-x---------------------------------------|

Split Guitar Part:

eb|-----5-4-----3-2---------|----5-4-----3-4----2-3-2----|--------------------|
Bb|---------5-------3---5---|--------5-------3--------3--|--------------------|
Gb|-------------------------|----------------------------|-5--5-5-5-5-5-5-7-7-|
Db|-----7-6-----5-4---------|----7-6-----5-4----5-4-5----|-5--5-5-5-5-5-5-7-7-|
Ab|---------7-------5---7---|--------7-------5--------5--|-3--3-3-3-3-3-3-5-5-|
Eb|--0----------------------|--0-------------------------|--------------------|
                                                               pm


[Chorus]

eb|-----7--10--12-------------------|-------------------------|
Bb|--------------------8--10--12----|-------------------------|
Gb|---------------------------------|-------------------------|
Db|---------------------------------|--9/11 9---[11-7]--------|
Ab|---------------------------------|-------------------------|
Eb|---------------------------------|-------------------------|

eb|---------------------------------|-------------------------|
Bb|---------------------------------|-------------------------|
Gb|--9----------------7-------------|--5----------------------|
Db|--9----------------7-------------|--5----------------------|
Ab|--7----------------5-------------|--3----------------------|
Eb|---------------------------------|-------------------------|



[Verse 2]

eb|--------------------|-------------------------------------|
Bb|--------------------|-------------------------------------|
Gb|--------------------|-------------------------------------|
Db|-------------5-7--5-|---------5-7-------------------------|
Ab|---2---2-2---7-7--7-|-2--2-2--7-7------5--------[5h7]-----|
Eb|---0---0-0----------|-0--0-0-------5h7-----[5h7]----------|

Split Guitar Part:

eb|-----5-4-----3-2--------|----5-4-----3-4----2-3-2----|--------------------|
Bb|---------5-------3---5--|--------5-------3--------3--|--------------------|
Gb|------------------------|----------------------------|-5--5-5-5-5-5-5-7-7-|
Db|-----7-6-----5-4--------|----7-6-----5-4----5-4-5----|-5--5-5-5-5-5-5-7-7-|
Ab|---------7-------5---7--|--------7-------5--------5--|-3--3-3-3-3-3-3-5-5-|
Eb|--0---------------------|--0-------------------------|--------------------|



[Bridge]

eb|-9b10-9~|------------------|-----------------------------|-----------------|
Bb|--------|------------------|------------------10---10h12-|-15b17--12-14-10-|
Gb|--------|-9h11p9-9-7-6h7p6~|----------9---9h11--11-------|-----------------|
Db|--------|------------------|---7--9h11-11----------------|-----------------|
Ab|--------|------------------|/9--9------------------------|-----------------|
Eb|--------|------------------|-----------------------------|-----------------|

eb|--------|------------------|-----------------------------|-----------------|
Bb|--------|------------------|-----------------------------|-----------------|
Gb|--------|------------------|-----------------------------|-----------------|
Db|--------|------------------|=----------------------------|-----------------|
Ab|-11-----|-7----------------|-7---------------------------|-9------7--------|
Eb|-9------|-5----------------|-9---------------------------|-7------5--------|

eb|-9p7h9-t14--9p7h9-t16--9p7h9-t17-9p7h9-t19-9p7h9-t17-9p7h9-|t16-------------|
Bb|-----------------------------------------------------------|----------------|
Gb|-----------------------------------------------------------|----------------|
Db|-----------------------------------------------------------|----------------|
Ab|-----------------------------------------------------------|----------------|
Eb|-----------------------------------------------------------|----------------|

eb|-----------------------------------------------------------|----------------|
Bb|-----------------------------------------------------------|----------------|
Gb|-----------------------------------------------------------|----------------|
Db|-----------------------------------------------------------|----------------|
Ab|-11--------------------------------------------------------|--9-------------|
Eb|-9---------------------------------------------------------|--7-------------|

                                   
eb|/14-16-(17)-14-12h14p12-----|--22-21-19-22-19-17-19-17-16-17-16-14-16-14-12-|
Bb|------------------------14--|-----------------------------------------------|
Gb|----------------------------|-----------------------------------------------|
Db|----------------------------|-----------------------------------------------|
Ab|----------------------------|-----------------------------------------------|
Eb|----------------------------|-----------------------------------------------|

eb|----------------------------|-----------------------------------------------|
Bb|----------------------------|-----------------------------------------------|
Gb|----------------------------|-----------------------------------------------|
Db|----------------------------|-----------------------------------------------|
Ab|(9)-------------------------|-7---------------------------------------------|
Eb|(7)-------------------------|-5---------------------------------------------|


eb|-14-12---12---------------|------------------------------------------------|
Bb|------14---14-12--14-12---|------------------------------------------------|
Gb|-----------------------14-|-11~-----9h11p9-7-9-7-6-7--6h7p6----------------|
Db|--------------------------|----------------------------------7--9~---------|
Ab|--------------------------|------------------------------------------------|
Eb|--------------------------|------------------------------------------------|


eb|--------------------------|-------------------------------------------------|
Bb|--------------------------|-------------------------------------------------|
Gb|--------------------------|-------------------------------------------------|
Db|--------------------------|-------------------------------------------------|
Ab|(7)-----------------------|-7-----------------------------------------------|
Eb|(5)-----------------------|-5-----------------------------------------------|


I don't know the second solo. Took along to figure our first solo.
I think it is all right until maybe the highest notes in solo not sure
on that really fast part. Maybe someone can post second solo in comments?

Second solo rhythm guitar repeats same notes, then end on chorus repeat.

One of my favorite songs. Thanks, enjoy!
Stay on the Rock! 

************************************

| x   Dead note
| (n) Ghost note
| h   Hammer-on
| p   Pull-off
| t   Tapping
| b   Bend
| /   Slide up
| \   Slide down
| ~   Vibrato
| PM  Palm mute

************************************
Suggest correction
Creating personal tab
Creating personal tab
You can edit any tab online and save it as your Personal.

You can edit, replace or remove any tab part or add personal notes – all changes will be seen only by you.

Personal tabs can be accessed anytime from any device, even offline.
Learn more »
Give kudos to tab author, rate the tab!
1 2 3 4 5
comments
print report bad tab
guest
You may want to rate the tab now too:
select rating
Wanna post a correction for this tab? Suggest correction