Oops, an error
Loading. Please wait.

Make You Mine Tab

1,610 views 3 this week
no commentswrite comment
1 2 3 4 5
please rate
add to favorites
launch autoscroll
font size
0
reset
how to read this tab
guitar tuner
Autoscroll
slow
fast
+/-
esc
set tempo
stop
Help us to improve Ultimate-Guitar.com Take our survey!
×
Author
standard tuning


intro

e-------------------------|
B-------------------------|
G-------------------------|
D---11----11----8----4----|      x2
A---11----11----8----4----|
E---9-----8-----6----2----|


Key: p=pull off      /=slide
e-----------------------------------------------------------------------|
B---9-9-9-7-7-7p6-6------9-9-9-7-7-7p6-6------9-9-9-7-7-7p6-6-6/2-2-2-2-|
G-----------------------------------------------------------------------|
D-----------------------------------------------------------------------|
A-----------------------------------------------------------------------|
E-----------------------------------------------------------------------|


verse

e----------------------------------------------------------------------------|
B----------------------------------------------------------------------------|
G----------------------------------------------------------------------------|
D---11----11----8----4-------11----11----8----6----4------11----11----8----4-|
A---11----11----8----4-------11----11----8----6----4------11----11----8----4-|
E---9-----8-----6----2-------9-----8-----6----4----2------9-----8-----6----2-|


pre chorus

e----------------------------------|
B----------------------------------|
G----------------------------------|
D---7-7-7-7---5---------7-7-7-7xxx-|
A---5-7-7-7---5---------7-7-7-7xxx-|
E---5-5-5-5---3---------5-5-5-5xxx-|


chorus

e--------------------------------------------|
B--------------------------------------------|
G--------------------------------------------|
D---3-3-3-3-3-3-3-3--4-4-4-4-4-4-4-4---------|        x3
A---3-3-3-3-3-3-3-3--4-4-4-4-4-4-4-4---------|
E---1-1-1-1-1-1-1-1--2-2-2-2-2-2-2-2---------|

e-----
B-----
G-----
D---11
A---11
E---9-


verse

e----------------------------------------------------|
B----------------------------------------------------|
G----------------------------------------------------|
D---11----11----8----4-------11----11----8----6----4-|
A---11----11----8----4-------11----11----8----6----4-|
E---9-----8-----6----2-------9-----8-----6----4----2-|


pre chorus


e----------------------------------|
B----------------------------------|
G----------------------------------|
D---7-7-7-7---5---------7-7-7-7xxx-|
A---5-7-7-7---5---------7-7-7-7xxx-|
E---5-5-5-5---3---------5-5-5-5xxx-|


chorus

e--------------------------------------------|
B--------------------------------------------|
G--------------------------------------------|
D---3-3-3-3-3-3-3-3--4-4-4-4-4-4-4-4---------|        x4
A---3-3-3-3-3-3-3-3--4-4-4-4-4-4-4-4---------|
E---1-1-1-1-1-1-1-1--2-2-2-2-2-2-2-2---------|

e-----
B-----
G-----
D---11
A---11
E---9-


SOLO

guitar 1 - lead

e-------------------------------------------------------------------------------|
B-------------------------------------------------------------------------------|
G---5-5-5-6-8b^-6-5-6--6-8-10-10-10--10-11-8--8-10-6--10-10-10--10-11-8--8-10-6-|
D-------------------------------------------------------------------------------|
A-------------------------------------------------------------------------------|
E-------------------------------------------------------------------------------|

e--------------------------------------------------------------------|
B--------------------------------------------------------------------|
G---14-14-14-15-17-17b^-15-13-11--11-12-14-14-14--14-15-12--12-14-10-|
D--------------------------------------------------------------------|
A--------------------------------------------------------------------|
E--------------------------------------------------------------------|

e---------------------------------------|
B---------------------------------------|
G---14-14-14--14-15-12--12-14-10---17b--|
D---------------------------------------|
A---------------------------------------|
E---------------------------------------|


Guitar 2 - background

e---------------------------------------------------------------------------|
B---------------------------------------------------------------------------|
G-------------------------------------6-6-xxx-6-6-xxxx-6-6-xxx-6-6-xxxx-6~--|
D---3-3-xxx-3-3-xxxx-4-4-xxx-4-4-xxxx-6-6-xxx-6-6-xxxx-6-6-xxx-6-6-xxxx-6~--| x2
A---3-3-xxx-3-3-xxxx-4-4-xxx-4-4-xxxx-4-4-xxx-4-4-xxxx-4-4-xxx-4-4-xxxx-4~--|
E---1-1-xxx-1-1-xxxx-2-2-xxx-2-2-xxxx---------------------------------------|

Interlude Part

e------------------|
B------------------|
G------------------|
D---7-7-7-7-7------|
A---7-7-7-7-7------|     (fade in)
E---5-5-5-5-5------|

e---------------------------|
B---------------------------|
G---------------------------|
D---7     -9      -11      -|        x4
A---7 (x8)-9  (x8)-11 (x16)-|
E---5     -7      -9       -|


end on

e---
B---
G---
D---11~
A---11~
E---9~~

i haven't figured out the outro chorus quite yet but i'll try to figure it out soon.

this is one of my favorite Stryper songs so i hope you enjoy

ROCK ON!
Suggest correction
Give kudos to tab author, rate the tab!
1 2 3 4 5
comments
print report bad tab
guest
You may want to rate the tab now too:
select rating
Wanna post a correction for this tab? Suggest correction