Oops, an error
Loading. Please wait.

Shining Star bass

version 1
version 1

Whole song

Interactive

by Stryper
901 views 1 this week
no commentswrite comment
1 2 3 4 5
3 more votes to show rating
add to favorites
×
Save as Personal and add changes to this tab that will be seen only by you. Learn more ›
×
You can save this tab as Personal to edit and correct it or add notes. All changes will be seen only by you. Learn more »
launch autoscroll
font size
0
reset
guitar tuner
edit
Autoscroll
slow
fast
+/-
esc
set tempo
stop
-------------------------------------------------------------------------------
			     SHINING STAR - Stryper
-------------------------------------------------------------------------------

Tabbed By : Isaias Garcia (TexasFury)

Tuning: half-step down


      Intro
      W                   W                   E.  S Q    H           W
F#||-------------------|-------------------|----------------------|-------------------|
C#||-------------------|-------------------|----------------------|-------------------|
G#||-------------------|-------------------|----------------------|-------------------|
D#||-------------------|-------------------|--0---0---------------|-------------------|


  E.  S E  E  H           H        Q    Q       E  E  S E.  S  S S  S S  S S  S
-----------------------|---------------------|----------------------------------|
-----------------------|---------------------|----------------------------------|
-----------------------|---------------------|-----7----5---5p-4------4p-2------|
--0---0-L--0-----------|----------------5----|--0-----0----------5p-3------5p-3-|


  E  E  S E.  S  S S  S Q       E  E  S E.  S  S S  S S  S S  S    E  E  S E.  S E.  S E.
-----------------------------|----------------------------------|--------------------------|
-----------------------------|----------------------------------|--------------------------|
-----7----5---5p-4-----------|-----7----5---5p-4------4p-2------|-----7----5-----5---------|
--0-----0----------5p-3-5----|--0-----0----------5p-3------5p-3-|--0-----0-------------5---|


  Verse 1
  S       S S S P P  S S  S S  S
  E       S S S S E  S E  S E  E     E  S S E  E  Q    Q
----------------------------------|--------------------------|
----------------------------------|--------------------------|
------------------5---------------|--------------------7~----|
--0-------x-0-x-0----x-0--x-5--3--|--0----0----0-------------|


                                         S    P   P P          P       S  S S   P P  S S 
S S  S S
   S  S  S S  S S  S  S S E  S E  S S    E  S S S S E  Q    E  S  S    E  S S S S E  S E 
S E  S S
--------------------------------------|-----------------------------|----------------------------|
--17-17-16----------------------------|-----------------------------|----------------------------|
-------------19---17-19---------------|------------------------5h-7-|----------------------------|
---0-----x-0--x-0-------x-0--x-0--x-x-|--0----0---x-0---------------|--0--x-0---x-0--x-0--x-0-x-x|


  S    P   P P          P       S    S    P    S    S  S S    S    S
  E  S S S S E  Q    E  S  S    E  S S E  E  S E  S E  S S    E  S S Q    Q    Q
-----------------------------|-----------------------------|------------------------|
-----------------------------|-----------------------------|------------------------|
------------------------5h-7-|-----------------------------|--------------5---------|
--0----0---x-0---------------|--0----0----0----0----0--x-x-|--0--x-0-----------5----|


  E  E  S E.  S  S S  S S  S S  S    E  E  S E.  S  S S  S Q       E  E  S E.  S  S S  S S S S  S
----------------------------------|-----------------------------|--------------------------------|
----------------------------------|-----------------------------|--------------------------------|
-----7----5---5p-4------4p-2------|-----7----5---5p-4-----------|-----7----5---5p-4------4p-2----|
--0-----0----------5p-3------5p-3-|--0-----0----------5p-3-5----|--0-----0----------5p-3-----5p-3|


                           Chorus 1
  E  E  S E.  Q    Q       Q.       S S H           Q    Q    H           H        H
------------------------|------------------------|---------------------|--------------------|
------------------------|------------------------|---------------------|--------------------|
-----7----5---5----4----|--3--------3-4-5--------|--7------------------|-----------5--------|
--0-----0---------------|------------------------|-------0----3--------|--5-----------------|


  Q    E  E   Q    Q       E  E  S E.  S  S S  S S  S S  S    E  E  S E.  S  S S  S Q
------------------------|----------------------------------|------------------------------|
------------------------|----------------------------------|------------------------------|
--7----7--L\--5---------|-----7----5---5p-4------4p-2------|-----7----5---5p-4------------|
-------------------5----|--0-----0----------5p-3------5p-3-|--0-----0----------5p-3-5~----|


                                                                Verse 2
                                                                S       S    S    S    S 
  S S
  E  E  S E.  S  S S  S S  S S  S    Q    Q    E  E    Q        E       E  S S E  E  S S 
 S S
----------------------------------|--------------------------|----------------------------------|
----------------------------------|--------------------------|----------------------------------|
-----7----5---5p-4------4p-2------|--------------------------|----------------------------------|
--0-----0----------5p-3------5p-3-|--0------------3s--17\----|--0-------0----0----0----0----x-x-|


  S S S    S   S       P       S  S    S    S    S    S S    S S S    S   S       P
  S S E  S E.  Q    E  S  S    E  E  S S E  E  S S E  S S    S S E  S E.  Q    E  S  S
----------------------------|-----------------------------|----------------------------|
----------------------------|-----------------------------|----------------------------|
-----------------------5h-7-|-----------------------------|-----------------------5h-7-|
--0-x-0----0---0------------|--0--0----0----0----0----x-x-|--0-x-0----0---0------------|


  S  S    S    S    S    S S    S S S    S   S       P       S  S    S    S    S    S S
  E  E  S S E  E  S S E  S S    S S E  S E.  Q    E  S  S    E  E  S S E  E  S S E  S S
-----------------------------|----------------------------|-----------------------------|
-----------------------------|----------------------------|-----------------------------|
-----------------------------|-----------------------5h-7-|-----------------------------|
--0--0----0----0----0----x-x-|--0-x-0----0---0------------|--0--0----0----0----0----x-x-|


  S S S    S
  S S E  S E.  S E.  S E.     E  E  S E.  S  S S  S S  S S  S    E  E  S E.  S  S S  S Q
---------------------------|----------------------------------|-----------------------------|
---------------------------|----------------------------------|-----------------------------|
-----------------5---------|-----7----5---5p-4------4p-2------|-----7----5---5p-4-----------|
--0-x-0----0-----------5---|--0-----0----------5p-3------5p-3-|--0-----0----------5p-3-5----|


  E  E  S E.  S  S S  S S  S S  S    E  E  S E.  Q    Q       E  E  S E.  S  S S  S S  S S S
----------------------------------|------------------------|----------------------------------|
----------------------------------|------------------------|----------------------------------|
-----7----5---5p-4------4p-2------|-----7----5---5---------|-----7----5---5p-4------4p-2------|
--0-----0----------5p-3------5p-3-|--0-----0----------5----|--0-----0----------5p-3------5p-3-|


  E  E  S E.  S  S S  S Q       E  E  S E.  S  S S  S S  S S  S    E  E  S E.  Q    Q
-----------------------------|----------------------------------|------------------------|
-----------------------------|----------------------------------|------------------------|
-----7----5---5p-4-----------|-----7----5---5p-4------4p-2------|-----7----5---5----4----|
--0-----0----------5p-3-5----|--0-----0----------5p-3------5p-3-|--0-----0---------------|


  Chorus 2
  Q.       S S H           Q    Q    H           H        H           Q    Q    Q    Q
------------------------|---------------------|--------------------|----------------------|
------------------------|---------------------|--------------------|----------------------|
--3--------3-4-5--------|--7------------------|-----------5--------|-------7----5----4----|
------------------------|-------0----3--------|--5-----------------|--0-------------------|


                                 S     P S                     S   P    S S S   P
  E  S S  Q    E   S  S  Q       S  E  S E  S  S Q     Q       E.  S E  S S E.  S Q
------------------------------|-----------------------------|--------------------------|
-----8-9-10-------10-11-12----|-------------5h-7-5~---------|------7-L----------9-L----|
--3------------5--------------|--5h-7--x---------------7----|--------------------------|
------------------------------|----------0------------------|--5--------5-6-7----------|


  E  S S Q    Q    Q       Q    Q    H           H        E.  S   Q        E  S S E  E  H
------------------------|---------------------|-------------------------|--4----5----6--L--------|
------------------------|---------------------|-------------------------|------------------------|
--7--7-7-L----5---------|---------------------|-------------------------|------------------------|
-------------------5----|--0------------------|---------------5s-12\----|--5----5----5--L--------|


  E  S S E  E  H           E  S S E   E   H             E  S  S E   E   H
--6----7----8--L--------|--8----9----10---L~--------|--10----11----12---L--------|
------------------------|---------------------------|----------------------------|
------------------------|---------------------------|----------------------------|
--5----6----7--L--------|--7----8-----9---L---------|---9----10----11---L--------|


                            Guitar Solo
   H.            E   E      E           E  S E.  S  S S  S S  S S  S
---L------------12---L\--|-------------------------------------------|
----------------11---L\--|-------------------------------------------|
-------------------------|--------------7----5---5p-4------4p-2------|
---L------------11---L\--|--0--------------0----------5p-3------5p-3-|


  E  E  S E.  S  S S  S Q        E  E  S E.  S  S S  S S  S S  S    E  E  S E.  Q    E  E
------------------------------|----------------------------------|--------------------------|
------------------------------|----------------------------------|--------------------------|
-----7----5---5p-4------------|-----7----5---5p-4------4p-2------|-----7----5---5-----------|
--0-----0----------5p-3-5~----|--0-----0----------5p-3------5p-3-|--0-----0----------5--L\--|


  E  E  S E.  S  S S  S S  S S  S    E  E  S E.  S  S S  S Q
----------------------------------|------------------------------|
----------------------------------|------------------------------|
-----7----5---5p-4------4p-2------|-----7----5---5p-4------------|
--0-----0----------5p-3------5p-3-|--0-----0----------5p-3-5~----|


  E  E  S E.  S  S S  S S  S S  S    E  E  S E.  S E.  S E.     E  E  S E.  S  S S  S S  SS  S
----------------------------------|--------------------------|----------------------------------|
----------------------------------|--------------------------|----------------------------------|
-----7----5---5p-4------4p-2------|-----7----5-----5---------|-----7----5---5p-4------4p-2------|
--0-----0----------5p-3------5p-3-|--0-----0-------------5---|--0-----0----------5p-3------5p-3-|


  E  E  S E.  S  S S  S Q        E  E  S E.  S  S S  S S  S S  S    S S S S E  S S S S E 
Q
------------------------------|----------------------------------|-----------------------------|
------------------------------|----------------------------------|-----------------------------|
-----7----5---5p-4------------|-----7----5---5p-4------4p-2------|-----------------------------|
--0-----0----------5p-3-5~----|--0-----0----------5p-3------5p-3-|--0-0-0-0----0-0-0-0---------|


                             Chorus 3
  E  S S S S E  Q    Q       Q.       S S Q.     S S    E.  S E  E  E.  S E  S S
--------------------------|--------------------------|---------------------------|
--------------------------|--------------------------|---------------------------|
--------------------------|--3--------3-4-5------5-6-|--7------------------------|
-----0-0-0-0----0---------|--------------------------|------0-0--0--3---3-3--3-4-|


  E.  S E  S S E.  S E  S S    E.  S Q    Q    Q       E  S S  Q    E   S  S  Q
----------------------------|-----------------------|------------------------------|
----------------------------|-----------------------|-----8-9-10-------10-11-12----|
-----------3-4-5---5----5-6-|--7----------5----4----|--3------------5--------------|
--5---5-5-------------------|------0-0--------------|------------------------------|


  S    P S                        S   P    S S S   P
  S  S S S E  S  S Q     Q        E.  S E  S S E.  S E  S S    E  S S E  E  Q    Q
-------------------------------|----------------------------|-------------------------|
---------5----5h-7-5~----------|------7-L----------9-L------|-------------------------|
--5h-7-7-----------------7\----|------------------------5-6-|--7--7---------5---------|
-------------------------------|--5--------5-6-7------------|-------0-0--0-------5----|


  Outro
  E     E  S E.  S  S S  S S  S S  S    E  E  S E.  S  S S  S Q
-------------------------------------|------------------------------|
-------------------------------------|------------------------------|
--------7----5---5p-4------4p-2------|-----7----5---5p-4------------|
--0--------0----------5p-3------5p-3-|--0-----0----------5p-3-5~----|


  E  E  S E.  S  S S  S S  S S  S    E  E  S E.  Q    Q       E  E  S E.  S  S S  S S  S S S
----------------------------------|------------------------|----------------------------------|
----------------------------------|------------------------|----------------------------------|
-----7----5---5p-4------4p-2------|-----7----5---5---------|-----7----5---5p-4------4p-2------|
--0-----0----------5p-3------5p-3-|--0-----0----------5----|--0-----0----------5p-3------5p-3-|


  E  E  S E.  S  S S  S Q        E  E  S E.  S  S S  S S  S S  S    E  E  S E.  S E.  S E.
------------------------------|----------------------------------|--------------------------|
------------------------------|----------------------------------|--------------------------|
-----7----5---5p-4------------|-----7----5---5p-4------4p-2------|-----7----5-----5---------|
--0-----0----------5p-3-5~----|--0-----0----------5p-3------5p-3-|--0-----0-------------5---|


  E  E  S E.  S  S S  S S  S S  S    E  E  S E.  S  S S  S Q
----------------------------------|------------------------------|
----------------------------------|------------------------------|
-----7----5---5p-4------4p-2------|-----7----5---5p-4------------|
--0-----0----------5p-3------5p-3-|--0-----0----------5p-3-5~----|


  E  E  S E.  S  S S  S S  S S  S    E  E  S E.  Q    Q       E  E  S E.  S  S S  S S  S S S
----------------------------------|------------------------|----------------------------------|
----------------------------------|------------------------|----------------------------------|
-----7----5---5p-4------4p-2------|-----7----5---5---------|-----7----5---5p-4------4p-2------|
--0-----0----------5p-3------5p-3-|--0-----0----------5----|--0-----0----------5p-3------5p-3-|


  E  E  S E.  S  S S  S Q        E  E  S E.  S  S S  S S  S S  S    E  E  S E.  S E.  S E.
------------------------------|----------------------------------|--------------------------|
------------------------------|----------------------------------|--------------------------|
-----7----5---5p-4------------|-----7----5---5p-4------4p-2------|-----7----5-----5---------|
--0-----0----------5p-3-5~----|--0-----0----------5p-3------5p-3-|--0-----0-------------5---|


  E  E  S E.  S  S S  S S  S S  S    E  E  S E.  S  S S  S Q
----------------------------------|------------------------------|
----------------------------------|------------------------------|
-----7----5---5p-4------4p-2------|-----7----5---5p-4------------|
--0-----0----------5p-3------5p-3-|--0-----0----------5p-3-5~----|


  E  E  S E.  S  S S  S S  S S  S    E  E  S E.  Q    Q       E  E  S E.  S  S S  S S  S S S
----------------------------------|------------------------|----------------------------------|
----------------------------------|------------------------|----------------------------------|
-----7----5---5p-4------4p-2------|-----7----5---5---------|-----7----5---5p-4------4p-2------|
--0-----0----------5p-3------5p-3-|--0-----0----------5----|--0-----0----------5p-3------5p-3-|


  E  E  S E.  S  S S  S Q        E  E  S E.  S  S S  S S  S S  S    E  E  S E.  S E.  S E.
------------------------------|----------------------------------|--------------------------|
------------------------------|----------------------------------|--------------------------|
-----7----5---5p-4------------|-----7----5---5p-4------4p-2------|-----7----5-----5---------|
--0-----0----------5p-3-5~----|--0-----0----------5p-3------5p-3-|--0-----0-------------5---|


  E  E  S E.  S  S S  S S  S S  S    E  E  S E.  S  S S  S Q
----------------------------------|------------------------------||
----------------------------------|------------------------------||
-----7----5---5p-4------4p-2------|-----7----5---5p-4------------||
--0-----0----------5p-3------5p-3-|--0-----0----------5p-3-5~----||


Duration Legend
---------------
W - whole
H - half
Q - quarter
E - 8th
S - 16th
T - 32nd
X - 64th
. - note dotted
|-n-|  - n-tuplets


Tablature Legend
----------------
L - tied note
x - dead note
g - grace note
(n) - ghost note
> - accentuded note
NH - natural harmonic
AH - artificial harmonic
TH - tapped harmonic
SH - semi harmonic
PH - pitch harmonic
h - hammer on
p - pull off
b - bend
br - bendRelease
pb - preBend
pbr - preBendRelease
brb - bendReleaseBend
\n/ - tremolo bar dip
\n - tremolo bar dive
-/n - tremolo bar Release up
/n\ - tremolo bar inverted dip
/n - tremolo bar return
-\n - tremolo bar Release down
S - shift slide
s - legato slide
/ -  slide into from below or out of upwards
\ -  slide into from above or out of downwards
~ - vibrato
W - wide vibrato
tr - trill
TP - tremolo picking
T - tapping
S - slap
P - pop
< - fade in
^ - brush up
v - brush down

            
            
Suggest correction
Creating personal tab
Creating personal tab
You can edit any tab online and save it as your Personal.

You can edit, replace or remove any tab part or add personal notes – all changes will be seen only by you.

Personal tabs can be accessed anytime from any device, even offline.
Learn more »
Give kudos to tab author, rate the tab!
1 2 3 4 5
comments
print report bad tab
guest
You may want to rate the tab now too:
select rating
Wanna post a correction for this tab? Suggest correction