Oops, an error
Loading. Please wait.

Urge Bass Tab

3,236 views 1 this week
no commentswrite comment
1 2 3 4 5
excellent!
x 4
add to favorites
launch autoscroll
font size
0
reset
guitar tuner
Autoscroll
slow
fast
+/-
esc
set tempo
stop
Help us to improve Ultimate-Guitar.com Take our survey!
×
Contributor
Mescalino 1,166
Artist: Stu Hamm
Song: The Urge Bass Solo

(Moonlight Sonata, Linus & Lucy, Count Zero, Sexually Active, Country Music)

I cant exactly remember where this part is played. But if im not mistaking
the solo begins this or is played just before part D:

moonlight sonata:
~       Let Ring 
(#)     Tap w/ fret hand

||-------(9)|-------(9)|-------(9)|-------(9)|------(9)|-------(9)|
||----11----|----11----|----11----|----11----|----11---|----11----|
||-11-------|-11-------|-11-------|-11-------|-11------|-11-------|
||----------|----------|----------|----------|(7)~~~~~~|~~~~~~~~~~|


||------(9)-|-------(9)|---(6)-9--|---(6)-9--|------11-|-------11-|
||----11----|----11----|----------|----------|----11---|----11----|
||-11-------|-11-------|-11-------|-11-------|11-------|-11-------|
||~~~~~~~~~~|~~~~~~~~~~|(5)~~~~~~~|~~~~~~~~~~|(2)~~~~~~|~~~~~~~~~~|


||---(6)-11-|---(6)-9--|---(6)-9--|---(6)-8--|----------------------||
||----------|----------|----------|----------|----------------------||
||-11-------|-11-------|-11-------|-11-------|----------------------||
||(4)~~~~~~~|~~~~~~~~~~|(4)~~~~~~~|~~~~~~~~~-|----------------------||
Tabbed By: Tony E. (intensity5@comcast.net)[Maryland]

Then:
A
||--(5)----17----17----(7)-19-(5)-17-|----17----17-(7)-19-(5)-17----|
||o-(5)-17----17----17---------------|-17----17-----------------17--|
||o----------------------------------|------------------------------|
||-----------------------------------|------------------------------|
     ^^ 2nd
     time only


|-(5)----17----17----(8)-20-(5)-17-|-----17----(8)-20-(5)-17----||
|-(6)-18----18----18---------------|--18----18---------------1-o||
|----------------------------------|---------------------------o||
|----------------------------------|----------------------------||



B 
||----------------------21----19-17-14-12-14-12---|
||o------12-17-------19----------------12-14-12---|
||o---10-------17-19-------19---------------------|
||--8---------------------------------------------|

|--------------------22----20-17-13-13-15-13------|
|-----20-18-------20----------------13-15-13-----o|
|---6-------18-20-------20-----------------------o|
|-4-----------------------------------------------|


|-------------------16------16-14----------|
|-----9-14-------14---------------14-------|
|---7------14-15---------15----------14-15-|
|-5--------------------5-------------------|

|------9-11-------10-12-14--|
|---10---------10-----------|
|-9----------8--------------|
|---------------------------|


|-----------------------------------------------------------|
|-----9-----16------------9----14---------------------------|
|---7----16----14-16----7---15----14-15---------------------|
|-5-------------------5-------------------------------------|


|----------16----------------------16-----------------------||
|----12-14----14-12-------12-14-15--------------------------||
|-10----------------14-10-----------------------------------||
|-----------------------------------------------------------||



C 1:19     ...etc
|-14-14-14-------16-16-16---------17-17-17------------------|
|-15-15-15-------15-15-15---------17-17-17------------------|
|-8--------------8---------8-10-8-7------------5-3----------|
|-------------8------------------------------------3-0------|

|-14--------------15----------------------------------------|
|-15--------------15----------------------------------------|
|--------5-------------8-10-8-------------------------------|
|-EX2--5-----10-8-6------------10-8--6----------------------|

|-14------------------------------19--|
|-15------------------10-15-----------|
|--------5----------8-------15-17-----|
|-EX2--5-----10-8-6-------------------|


|--------------------------------||
|-----------5-16-17-----------5--||
|---------5---------17-19-17--5--||
|-6-5-4-3---------------------3--||

D
+------------------|----------------|-------------------|---------------+
|-----5-----5------|----------------|o----5-----5-------|---------------|
|---5-----5--------|---5-7---5-7----|o--5-----5---------|---5-7---5-7---|
+-3-----3--------3-|-3-----3------3-|-3-----3---------3-|-3-----3-----3-+
--'              `---'            `---'               `---'          
  `---

+-121416--161412-14|14-----12-----12|-121416--16--------|---------------+
|-----5-----5------|----------------|-----5-----5-------|---------------|
|---5-----5--------|---5-7---5-7----|---5-----5---------|---5-7---5-7---|
+-3-----3--------3-|-3-----3------3-|-3-----3---------3-|-3-----3-----3-+
--'              `---'            `---'               `---'          
  `---

+-121416--161412-14|14-----12-----12|-12----1414--------|---------------+
|-----5-----5------|----------------|-----8-----8-------|---------------|
|---5-----5--------|---5-7---5-7----|---8-----8---------|---8-10--8-10--|
+-3-----3--------3-|-3-----3------6-|-6-----6---------6-|-6-----6-----3-+
--'              `---'            `---'               `---'          
  `---

+-12----1414-------|----------------|
|-----5-----5------|---------------o|
|---5-----5--------|---5-7---5-7---o|
+-3-----3--------3-|-3-----3------3-|
--'              `---'              Slap:

|--5-5-5-7-----|-12---------12---------12-------12----|
|o-5-5-5-7-----|-12/14-14---12/14-14---12/14-14-12---o|
|o-3-3-3-5-----|-------------------------------------o|
|--------------|-----------------------------------3--|


|--7-7-7---9---|-14---------14---------14-------14----|
|o-7-7-7---9---|-14/16-16---14/16-16---14/16-16-14---o|
|o-5-5-5---7---|-------------------------------------o|
|--------------|--------------------------------------|


|--7-7-7-|--9---------------------------7--7--7--|-9--------------x--|
|--7-7-7-|--9---------------------------7--7--7--|-9----------?--?-x-|
|--5-5-5-|--7------------7----(5)7-5----5--5--5--|-7-----------x----x|
|--------|-----0-0-0---0---0---------------------|----0-0-0--?---x---|


|--7-7-7-|--9-------14-16-21-16-14-21-16-14-16-21-16-14-16-21--7-7-7-|
|--7-7-7-|--9--------------------------------------------------7-7-7-|
|--5-5-5-|--7--------------------------------------------------5-5-5-|
|--------|----0-0-0--------------------------------------------------|

|-9--9--7--------------------------------||
|-9--9--7--------------------------------||
|-7--7--5---4---2------------------------||
|-------------------5----3^--------------||


E                                                v 2nd Time
|-------4---4--2--0--2--4--|------4---4--2--0--2(6)~---|
|o-----2-------------------|-----2--------------------o|
|o-------------------------|--------------------------o|
|--0--0--0-----------------|-0--0--0-------------------|

|-------4---4--2--0--2--4--|------4---4--2--0--2--|-----2---3--2--0--2--3|
|------2-------------------|-----2----------------|----0-----------------|
|--------------------------|----------------------|----------------------|
|--0--0--0-----------------|-0--0--0--------------|-3-3--3---------------|

|-----6-6-9-13-9-13-18-13-9-6-9-13-9-13-18-13-9-6-9-13-9-13-18-13-9-6---|
|----9------------------------------------------------------------------|
|-7-7-------------------------------------------------------------------|
|-----------------------------------------------------------------------|


|-------2-2-4-------2-2-4-------2-2-4-------2-2-4----|
|o-----2-----------2-----------2-----------2---------|
|o---------------------------------------------------|
|--0--0--------0--0--------0--0--------0--0----------|

|-------2-2-3-------2-2-3-------2-2-3-------2-2-3----|
|------0-----------0-----------0-----------0--------o|
|---------------------------------------------------o|
|--3--3--------3--3--------3--3--------3--3----------|

                             x6
|-----2---2---2---2---2---2---|----2-2-2-2-2-2-2--|--2-2-2-2-2-2-2-2--||
|o------------------0---2----o|-------------------|-------------------||
|o--4---4---4---3------------o|-4-4-4-4-4-4-4-4---|-5-5-5-5-5-5-5-5---||
|-----------------------------|-------------------|-------------------||
				------=========<

F
|--------16---------------16---------------16---------------16---------|
|------14--14-----------14--14-----------14--14-----------14--14-------|
|----14------14-------14------14-------14------14-------14------14-----|
|-12---------------12---------------12---------------12----------------|

|--------14---------------14---------------14---------------14---------|
|------12--12-----------12--12-----------12--12-----------12--12-------|
|----12------12-------12------12-------12------12-------12------12-----|
|-12---------------12---------------12---------------12----------------|

|--------14---------------14---------------14---------------14---------|
|------12--12-----------12--12-----------12--12-----------12--12-------|
|----12------12-------12------12-------12------12-------12------12-----|
|-10---------------10---------------10---------------10----------------|

|--------12---------------12---------------12---------------12---------|
|------10--10-----------10--10-----------10--10-----------10--10-------|
|----10------10-------10------10-------10------10-------10------10-----|
|-10---------------10---------------10---------------10----------------|

|-----------------------------------|-----------------------------------|
|-----10-------10-------10-------10-|-----12-------12-------12-------12-|
|---10-------10-------10-------10---|---12-------12-------12-------12---|
|-8--------8--------8--------8------|-8--------8--------8--------8------|

|-----------------------------------|-----------------------------------|
|-----14-------14-------14-------14-|-----16-------16-------16-------16-|
|---15-------15-------15-------15---|---15-------15-------15-------15---|
|-8--------8--------8--------8------|-8--------8--------8--------8------|

|-----12-------12-------12-------12-|-----14-------14-------14-------14-|
|---12-------12-------12-------12---|---14-------14-------14-------14---|
|-----------------------------------|-----------------------------------|
|-8--------8--------8--------8------|-8--------8--------8--------8------|

|-----17-------17-------17-------17-|-----17-------17------------------||
|---17-------17-------17-------17---|---17-------17--------------------||
|-----------------------------------|----------------------------------||
|-8--------8--------8--------8------|-8--------8--------8--------------||


G
|---------|---17---17---17---17-----|---17---17---17---17-----|
|---------|---17---17---17---17-----|---17---17---17---17-----|
|-------2-|-3---------3-------------|-3---------3-------------|
|-3--5----|------3---------3--------|------3---------3--------|

|---14---14---14---14-----|---17---17---17-17---17-----|
|---14---14---14---14-----|---17---17---17-17---17-----|
|------7---------7--------|-3---------3----------------|
|-5---------5-------------|------3------------3--------|

|---14---14---14---14-----|---17---17---17---17-----|
|---14---14---14---14-----|---17---17---17---17-----|
|------7---------7--------|-3---------3----5--------|
|-5---------5-------------|------3------------------|

|---16---16---16---16-----|-------------------------|---||
|---17---17---17---17-----|-------------------------|---||
|------5---------5--------|-----------2--3--------2-|-3-||
|-3---------3-------------|--3--3--5--------3--5----|---||


Credit goes to: Ian Stephenson [ian@ohm.york.ac.uk] for tabbing the solo.
I posted them together to have the entire bass solo in one Tab.
For aditional info read the the tab: QuaHogs Anyone and QuaHogs Anyone Part II
By Ian Stephenson.

Greetings and Enjoy!
Mescalino
comments
print report bad tab
I want to post or [tab]
guest
You may want to rate the tab now too:
select rating
Please do not post tabs as comments. Select "correction" instead!