Oops, an error
Loading. Please wait.

I Will Be Happy And Hopefully You Will Be Too chords

604 views 105 this week
no commentswrite comment
1 2 3 4 5
1 last vote to show rating
add to favorites
×
Save as Personal and add changes to this tab that will be seen only by you. Learn more ›
×
You can save this tab as Personal to edit and correct it or add notes. All changes will be seen only by you. Learn more »
launch autoscroll
font size
0
reset
transpose
0
reset
simplify chords
display chords
guitar tuner
edit
Autoscroll
slow
fast
+/-
esc
set tempo
stop
About this tab version
This tabs are about the spotify version so i think the official one of this song. The 'x' at the strumming pattern should be the bassnote of every chord. Was this info helpful? Yes No
Strumming Are these strumming patterns correct? Yes No
Verse 100 bpm
1
&
2
&
3
&
4
&
5
&
6
&
7
&
8
&
Listen
Bridge 100 bpm
1
&
2
&
3
&
4
&
5
&
6
&
7
&
8
&
Listen
[Intro]
G4 x2001x
C  G4  Am  G  (2x)

[Verse 1]
E7 x2010x
C        G4         Am        G
I want a house in the country
C        G4           Am       G
I want a house by the sea
C          G4            Am          G  
It doesn’t really matter where I live
    F         G           C (hammer on on D: 0h2)  C
as longs as you’re with me
C      G4       Am     G
quiero habla español
C         G4         Am      G
I want to learn Japanese
C              G4        Am          G      
I don’t really mind if I can’t say a word
    F        G          C   G4  Am G F G C
as long as you’re with me

 "Stu makes here some hammer on's from G to C like:
    F             G          C
e|----------------------------------------------|
B|------1--1--------------------------------1---|
G|------2--2---------0----------------------0---|
D|--3---3--3---------------------0h2--------2---|
A|------3--3-----------0h2---3---------3----3---|
E|------1--1------3-----------------------------|

C         G4          Am        G
I want to visit South America
C         G4          Am        G
And maybe Africa, too
   C              G4              Am         G     
It doesn’t really bother me just where I go
    F      G       C (hammer on on D: 0h2)  C
as long as I’m with you
C       G4     Am     G
I wanna do karaoke
    C               G4          Am       G
And hear you sing a song or two
   C              E7            Am            G      
It doesn’t really matter if you can’t stay in tune
    F        G        C
as long as I’m with you

[Chorus]
e|-------------------------------------------------------------------------------------|
B|---------------1------0------------------------------------------------1-------------|
G|---------------2------0--------0---2--0--------------------------------0-------------|
D|----------------------0-2--3-------------3---2---3--2--0---2---0-------2-------------|
A|---3---2----0-----2------------------------------------------------3-----------------|
E|------------------3------------------------------------------------------------------|
If I’m with you   Babe   I will be happy and hopefully you will be too

E|-------------------------------------------------------------------------------------|
B|---------------1------0----------------------------------------------------------1---|
G|---------------2------0--------0---2--0------------------------------------------0---|
D|----------------------0-2--3-------------3---2---3--2--0---2---0-------0h2-------2---|
A|---3---2----0-----2------------------------------------------------3---------3-------|
E|------------------3------------------------------------------------------------------|
If I’m with you   Babe   I will be happy and hopefully you will be too

[Verse 2]
C        G4         Am     G
I want a holiday in cuba
        C                G4        Am     G
Or St. Vincent in the Grenadines
  C               G4          Am        G     
F           G         C (hammer on on D: 0h2)   C
I really could be anywhere at all on earth as long as you’re with me
C           G4        Am      G
I wanna dive into the ocean
    C              G4       Am       G
And swim in the Caribbean Sea
   C            G4              Am        G   
It never really bothers me just where I am
    F         G          C
as long as you’re with me

[Chorus]
e|-------------------------------------------------------------------------------------|
B|---------------1------0------------------------------------------------1-------------|
G|---------------2------0--------0---2--0--------------------------------0-------------|
D|----------------------0-2--3-------------3---2---3--2--0---2---0-------2-------------|
A|---3---2----0-----2------------------------------------------------3-----------------|
E|------------------3------------------------------------------------------------------|
If I’m with you   Babe   I will be happy and hopefully you will be too

E|-------------------------------------------------------------------------------------|
B|---------------1------0----------------------------------------------------------1---|
G|---------------2------0--------0---2--0------------------------------------------0---|
D|----------------------0-2--3-------------3---2---3--2--0---2---0-------0h2-------2---|
A|---3---2----0-----2------------------------------------------------3---------3-------|
E|------------------3------------------------------------------------------------------|
If I’m with you   Babe   I will be happy and hopefully you will be too

[Bridge]
Am
I hope it’s not too hard to believe it
Em
I hope you know that it’s true
F                                   G
I will be the happiest man alive as longs as I’m with you

[Verse 3]
C        G4            Am        G
Maybe we land up on an island
     C               G4         Am       G
In a cottage with an ocean view
  C               G4         Am          G    
I really could be anywhere in  this world 
    F       G       C      C
as long as I’m with you
  C               G4         Am          G    
I really could be anywhere in  this world
    F       G        C      C
as long as I’m with you


[Outro]
  C               G4         Am          G    

I really could be anywhere in  this world
    F       G
as long as I’m with

e|----------------------------------------------------------------------------------|
B|------------------------------------------------------1-----------------------0h1-|
G|------------------0---2--0----------------------------0-----------------------0---|
D|-------0---2--3-------------3---2---3--2--0---2---0---2-----------------------2---|
A|---3--------------------------------------------------3-------------------2---3---|
E|--------------------------------------------------------------3--3/4--3-----------|
   you Babe I will be happy and hopefully you will be too

            
            
Suggest correction
Creating personal tab
Creating personal tab
You can edit any tab online and save it as your Personal.

You can edit, replace or remove any tab part or add personal notes – all changes will be seen only by you.

Personal tabs can be accessed anytime from any device, even offline.
Learn more »
Give kudos to tab author, rate the tab!
1 2 3 4 5
comments
print report bad tab
guest
You may want to rate the tab now too:
select rating
Wanna post a correction for this tab? Suggest correction