Oops, an error
Loading. Please wait.

My Surrender chords

547 views 1 this week
1 commentread comment
1 2 3 4 5
1 last vote to show rating
add to favorites
×
Save as Personal and add changes to this tab that will be seen only by you. Learn more ›
×
You can save this tab as Personal to edit and correct it or add notes. All changes will be seen only by you. Learn more »
launch autoscroll
font size
0
reset
transpose
0
reset
simplify chords
display chords
guitar tuner
edit
Autoscroll
slow
fast
+/-
esc
set tempo
stop
Author
Strumming
There is no strumming pattern for this song yet. and get +5 IQ
Stu Larsen - My Surrender


Intro:

      G               D/F#            Em              C
e|-----------------------------------------------------------------------|
B|----------3---------------3---------------3---------------3------------|
G|--------0-----0---0-----2-----2---2-----0-----0---0-----0-----0---0----|
D|------0---------0-----0---------0-----2---------2-----2---------2------|
A|----------------------------------------------------3------------------|
E|----3---------------2---------------0----------------------------------|

G  D/F#  Em  C  x2


Verse 1:
G      D/F#    Em    C
  This      is    my   surrender
G     D/F#     Em      C
  You      got    what   you wanted
G      D/F#         Em    C
  Hope      drowned    in   the winter
G           Em      D/F#
  Now she's gone forever


Chorus:
G          Em          C
  You come    crashing   down
G           Em          C
  Lies will    keep you   out


Verse 2:
G        D/F#     Em    C
  You've      got    my  attention
G     D/F#        Em      C
  Now      please    stop   pretending
G      D/F#      Em      C
  This      dark    room   is blinding
G          Em       D/F#
  You know where to find me


Chorus:
G            Em          C
  We'll come    crashing   down
G           Em         C
  Lies will    keep us   out
G            Em          C
  We'll come    crashing   down
G           Em         C
  Lies will    keep us   out


Outro:
G      D/F#    Em    C
  This      is    my   surrender

            
            
Suggest correction
Creating personal tab
Creating personal tab
You can edit any tab online and save it as your Personal.

You can edit, replace or remove any tab part or add personal notes – all changes will be seen only by you.

Personal tabs can be accessed anytime from any device, even offline.
Learn more »
Give kudos to tab author, rate the tab!
1 2 3 4 5
comments
print report bad tab
1 comment total.
0 reply
beelalala 10 Dec 13, 2011 02:32 AM

This is great! thanks for putting it up! Just one thing: for the D/F# the tab should be

e|--------------------------------------------------|
B|--------3-----------------------------------------|
G|------2---0---0-----------------------------------|
D|----0-------2-------------------------------------|
A|--------------------------------------------------|
E|-2------------------------------------------------|

guest
You may want to rate the tab now too:
select rating
Wanna post a correction for this tab? Suggest correction