Oops, an error
Loading. Please wait.

The Black Tree chords

version 1
version 1

Whole song

1,496 views 9 this week
no commentswrite comment
1 2 3 4 5
1 last vote to show rating
add to favorites
×
Save as Personal and add changes to this tab that will be seen only by you. Learn more ›
×
You can save this tab as Personal to edit and correct it or add notes. All changes will be seen only by you. Learn more »
launch autoscroll
font size
0
reset
transpose
0
reset
simplify chords
display chords
guitar tuner
edit
Autoscroll
slow
fast
+/-
esc
set tempo
stop
Author
Strumming
There is no strumming pattern for this song yet. and get +5 IQ
Stu Larsen - The Black Tree


Intro:
      E       A/C#      B       A
e|-------------------------------------------|
B|----------5---------5-------5--------------|
G|--------4---------2-------2----------------|
D|----------------2-------4-------------2----|
A|------2-----2h4-------2-------0---2h4------|
E|----0--------------------------------------|

E  B/C#  B  A  x2


Break: (play between verses)
      E       A/C#      B       A
e|---------------------------------------------------------------------|
B|----3---3---3---3---7---7---7---7---5---5---5---5---3---3---3---3----|
G|---------------------------------------------------------------------|
D|-----0----0---0---0---0---0---0---0---0---0---0---0---0---0---0------|
A|---------------------------------------------------------------------|
E|---------------------------------------------------------------------|

Break*:
      E       A/C#      B       A
e|-------------------------------------------------------------------------|
B|----7---7---7---7---10---10---10---10---5---5---5---5---3---3---3---3----|
G|-------------------------------------------------------------------------|
D|-----0----0---0---0----0----0----0----0---0---0---0---0---0---0---0------|
A|-------------------------------------------------------------------------|
E|-------------------------------------------------------------------------|


Verse 1:
E              A/C#               B                    A
  Black tree remember me from the time when we used to talk?
E              A/C#                        B           A
  How strange, things have changed I don't know you anymore
        E                      A/C#          B              A
But you stayed the same that's why I came, I need your clarity
     E                 A/C#            B           A
'Cos I find peace as I sit beneath your familiarity
 

Verse 2:
E              A/C#               B              A
  Black tree remember me? I'm the one who moved away
E            A/C#           B                A 
  Yeah I know I've grown so much since yesterday
         E                 A/C#              B               A     
And it's been so long that it feels wrong to ask anything of you
    E                   A/C#            B                 A    
But I'm more lost than I ever was and I need to know your truth


Verse 3:
E              A/C#      B            A 
  Black tree remember me? I hoped you might
E           A/C#        B                   A
  I was sure you saw me running through the night
   E                   A/C#                 B             A
So I cried out, yeah I screamed so loud for you to rescue me
    E               A/C#           B         A 
But I was found without a sound in your company y-y


E  A/C#  B  A

      E  A/C#  B  A
Company


Verse 4:
E              A/C#      B               A 
  Black tree remember me for the rest of time
E          A/C#         B              A 
  When I go I hope they lay me by your side
     E                       A/C#       B                   A 
'Cos you stand tall, will you ever fall? I know you never will
E                   A/C#   B               A 
You'll be free for eternity on the other side


         E    A/C#    B    A
That old hill                 x8

            
            
Suggest correction
Creating personal tab
Creating personal tab
You can edit any tab online and save it as your Personal.

You can edit, replace or remove any tab part or add personal notes – all changes will be seen only by you.

Personal tabs can be accessed anytime from any device, even offline.
Learn more »
Give kudos to tab author, rate the tab!
1 2 3 4 5
comments
print report bad tab
guest
You may want to rate the tab now too:
select rating
Wanna post a correction for this tab? Suggest correction