Oops, an error
Loading. Please wait.

Kings Of Sleep bass

version 2
version 2

Whole song

1,028 views 3 this week
no commentswrite comment
1 2 3 4 5
3 more votes to show rating
add to favorites
×
Save as Personal and add changes to this tab that will be seen only by you. Learn more ›
×
You can save this tab as Personal to edit and correct it or add notes. All changes will be seen only by you. Learn more »
launch autoscroll
font size
0
reset
guitar tuner
edit
Autoscroll
slow
fast
+/-
esc
set tempo
stop
Author
Unregistered
Artist: Stuart Hamm
Track: Kings Of Sleep
Album: Kings Of Sleep
5 String Bass: B,E,A,D,G
Tab: Kevin Mc Donald (Metallika5@hotmail.com)

I'm sorry i wasn't able to tab all the solo but the majority
the riffs are there. I'm nearly positive Stu uses a 5 string on this song
OR you could just drop D on a 4 string and modify the tab yourself:-)
I Didn't tab the timing or anything like that but just listen to the cd to get
it I hope to have the rest tabbed in a while. I Hope this will do till then.
Thanks. p.s if the tab lines are too long paste to wordpad and increse the print margin.

H:Hammer On
P:Pull Off
\:Slide Up
/:Slide Down
S : Slap
{5}: Natural Harmonic
~ : Let the note(s) Ring


Intro (Main Riff)

G--------14-----16-------14-------------14--------16-------------14----------
D-----------14--------------14--------------14-----------------------14------
A----------------------------------------------------------------------------
E---5----------------2-------------------------------------------------------
B--------------------------------3--------------------5--7--5----------------
    

--------14-----16--------14-------------14--------16-------------14----------------
-----------14---------------14--------------14-----------------------14------------
-----------------------------------------------------------------------------------
---5--------------7/---2-----------------------------------------------------------
---------------------------------3--------------------5--7--5--------------5--7--5-
      

--------14-----16--------14-------------14--------16-------------14-----------------
-----------14---------------14--------------14-----------------------14-------------
-------------------------------------------------------------------------------4----
---5--------------7/---2----------------------------------------------------2----0--
---------------------------------3--------------------5--7--5-----------------------


------14-----16---------14-----------------14-----16-----------14-------------------
---------14-----------------14----------------14------------------14----------------
-----------------4------------------4------------------4-------------------4--------
--2------------------2----------4H5-----2------------------2-----------4H5----------
------------------------------------------------------------------------------------
   (Back to the start of the intro when the guitar kicks in)


Riff 2 (1:29)
i'm not 100% sure on this riff but it sounds ok to me.

G-----------14----16----------------14-----16----------------14------16-------------14----16-
D--------14----14---------------15-----14----------------14------14--------------14----14----
A-----15--------------------17-----------------------15-----------------------15-------------
E--1-----------------1--3----------------------3--1---------------------1--3-----------------
B--------------------------------------------------------------------------------------------


-------------14----16----------------14-----16-----16-18----14\---16/-9/--6-----
----------14----14---------------15-----14--------------------------------------
-------15--------------------17-----------------------------12\---14/-----------  X2 
-3--1-----------------1--3-------------------------17-----------------8/--5-----
--------------------------------------------------------------------------------


Back to the main riff (1:59)



Riff 3: Main Riff Viration (3:00)

This Riff is played using tap Harmonics.Fret the notes in the brackets 
and tap the high notes. 

G-----(2)----14--------(4)-16---------(2)-------14----------(2)-------14------(4)--16-
D-------(2)------14-----------------------(2)------14-----------(2)------14-----------
A--0----------------------------------------------------------------------------------
E--------------------------------2----------------------------------------------------
B--------------------------------------------------------3----------------------------
   

---------(2)------14------------(2)-----14------(4)--16---------(2)-----14---------------
-------------(2)------14-----------(2)-----14-----------------------(2)----14------------
---------------------------0-------------------------------------------------------------
--0H2P0--------------------------------------------------7/---2--------------------------
-----------------------------------------------------------------------------------------
                           


--------(2)------14------(4)-16-----------(2)-------14----------(2)-------14-----(4)-16-
------------(2)-----14------------------------(2)------14-----------(2)-------14--------
------------------------------------------------------------0---------------------------
-----------------------------------0H2P0------------------------------------------------
--3-------------------------------------------------------------------------------------
                                                            


----------(2)------14-----------(2)------14------(4)-16----------(2)------14------------
--------------(2)------14-----------(2)------14----------------------(2)------14--------
----------------------------------------------------------------------------------------
--7/--2--------------------------------------------------0H2P0--------------------------
----------------------------3-----------------------------------------------------------


------(2)-----14-----------------(2)----14-----------(2)-------14-------------(2)-----14----
----------(2)-----14-----------------(2)---14------------(2)-------14-------------(2)----14-
-----------------------4-----------------------------------------------4--------------------
---2------------------------2-------------------2-------------------------2-----------------
--------------------------------------------------------------------------------------------


Riff 4 (3:29) 

G----------------------------------------------------------------------------------------
D----------------------------------------------------------------------------------------
A----------------------------------------------------------------------------------------
E-1-1-0---0-1-0--5--5-5----5--3--1-1-0--------------------------------------0--1-1-0-----
B---------------------------------------/----------\------333333333333---3---------------
  S S S   S S S  S  S S    S  S  S S S                                   S  S  S  S S

------------------------------------------------------------------------------------------
------------------------------------------------------------------------------------------
------------------------------------------------------------------------------------------
-0-1-0--5--5-5--5---3--1-1-0-----------------------(keep playing the D)-------------------
------------------------------/---------\------33333333333333333333333333333333333333-----
 S S S  S  S S  S   S  S S S

Riff 4 Solo (3:57)
This is the best i can do for the solo...........

G-----7---------{7}--{7}--------{7}-----------------------------------------7--{7}--------
D---------{5}---{7}--{7}--------{7}-------------------7/9--9-7--4-4-2-------7--{7}--------
A-----5----------5------------------------------------------------------------------------
E-----------------------------------------------------5/7--7-5--2-2-0---------------------
B-------------------------3-3------------3-/-10--3---------------------3------------------
      S                   S S            S   S   S                     S    S


---16~-14-13-16-14-13-16-14-13----------------------------------------------------------
---------------------------------16--18--14--16---14-14H16P14---------------------------
---------------------------------------------------------------16~----------------------
--------------------------------------------------------------------12/14-12-15-12-14~--
----------------------------------------------------------------------------------------
 
(4:24)
-----------------------------------------------2-2-4-2-2-4-2-7-6-4-2-----2-2-4-2-2-4-2---
-------------------------------------------0-0-0-0-0-0-0-0-0-0-0-0-0-4-2-0-0-0-0-0-0-0---
-----------------------------------------------------------------------------------------
-12-11-14-12-11-14-12-11-9---9/11--7--9--------------------------------------------------
-----------------------------------------------------------------------------------------
                                           S S S S S S S S S S S S S S S S S S S S S S 

----------------------------------2-2-4-2-2-4-2-4/7--6-4-2-------2---2----- There is a
--2H4P2-0-------------------------0-0-0-0-0-0-0-0~---0-0-0-4-2-4-0-4-0-4-2- CRAZY fill
-----------5--2H4P2-0------------------------------------------------------ here that i
-----------------------5--------------------------------------------------- can't tab(4:42)
---------------------------3-----------------------------------------------


(4:43)
---16~-14-13-16-14-13-16-14-13----------------------------------------------------------
---------------------------------16--18--14--16---14-14H16P14---------------------------
---------------------------------------------------------------16~----------------------
--------------------------------------------------------------------12/14-12-15-12-14~--
----------------------------------------------------------------------------------------


Tapping solo (5:02) till (5:40)


Riff 5 (5:40)

G------------------------------------4-6-8-8H10P8-6H8P6-4H6P4-2H4P2-4H6P4-6H8P6\-16-
D-----------------------------------------------------------------------------------
A---2-1-2~----5-4-5--7--9---2-1-2~--------------------------------------------------
E-----------------------------------------------------------------------------------
B-----------------------------------------------------------------------------------


Riff 6 Guitar Solo

B-3-3-3-3-3-3-3-3-3-3-3-3-3-3-3-3-3-3-3-3-5-5-5-5-5-5-5-5

Play this riff from (5:55) to (6:24) then it kicks back into 
riff number 3 (main riff viration)



Riff 7 (7:02)

This is the solo riff over the main riff

G---21-21-21-19-18-16-16-18~---21-21-21-19-18-14H16-14~-----21-21-21-19-18-16-16-18~-
D------------------------------------------------------------------------------------
A------------------------------------------------------------------------------------
E------------------------------------------------------------------------------------
B------------------------------------------------------------------------------------


---14-14H16-18-16-14-----14~-------------------------------------
----------------------16--------16-14-12------12-----12----------
-------------------------------------------14----14-----14-------
-----------------------------------------------------------------
------------------------------------------------------------3~---

                                          (7:40)               
--6-7-9--9\11-9\11-9\11--14---7-7-7-9----------------9-7\9-------------------
--------------------------------------9-7-9~--9-7-9--------------------------
-----------------------------------------------------------------------------
-----------------------------------------------------------------------------
-----------------------------------------------------------------------------


Outro (7:48)
The best I can do for the moment is just the bass notes.

G-----------------------------------------------------------------------------
D-----------------------------------------------------------------------------
A--------------7---9------------------7---9----------------7--9--7--5~--7-----
E-----5---7\9---------------5--7\9---------------5---7\9----------------------
B--------------------777--------------------777-------------------------------
Suggest correction
Creating personal tab
Creating personal tab
You can edit any tab online and save it as your Personal.

You can edit, replace or remove any tab part or add personal notes – all changes will be seen only by you.

Personal tabs can be accessed anytime from any device, even offline.
Learn more »
Give kudos to tab author, rate the tab!
1 2 3 4 5
comments
print report bad tab
guest
Wanna post a correction for this tab? Suggest correction