Oops, an error
Loading. Please wait.

Zing Zillas Banana Song bass

3,656 views 1 this week
no commentswrite comment
1 2 3 4 5
x 4
add to favorites
×
Save as Personal and add changes to this tab that will be seen only by you. Learn more ›
×
You can save this tab as Personal to edit and correct it or add notes. All changes will be seen only by you. Learn more »
launch autoscroll
font size
0
reset
guitar tuner
edit
Autoscroll
slow
fast
+/-
esc
set tempo
stop
Author
FIRST OF ALL WATCH THIS v v v v v v v v v v v v v v v v v v v v v 

http://www.youtube.com/watch?v=kJrHWmCjfx0&feature=player_embedded

Stuart Zender is my biggist insperation. He made me fall madley in love with
Jamiroquai and his funky bass lines. I became friends with him on facebook
and in one of his post he uploaded this funky video. The bass line is 
AMAZING on it.. so i had to tab it out ! :D 
it took me little over an hour cuz its soo damn hard, and also it's 2 in the
morning, so expect some mistakes XD

Rate, comment :) :D Enjoy. Love Peace and chicken grease 

Normal Tuning.
G|
D|
A|
E|

Riff A
|-------------------|
|-----8-8-8-x-------|
|-------------8h9p8-| x2 
|-6-x---------------|
  T T P P P P T

|-----5-5-5-x-----------|---------------------|
|-------------12h13\\10-|-----2-2-2-x---------|
|-3-x-------------------|---------------------|
|-----------------------|-0-x---------0--0--0-|
  T T P P P P  T          T T P P P P T  T  T 

|-------------------|
|-----8-8-8-x-------|
|-------------8h9p8-| x2 
|-6-x---------------|
  T T P P P P T 

Interlude
|-----5-5----9---9------5-5------|---------|
|--------------------------------|---------|
|-3-x------7---x----3-x----------|-----3---|
|---------------------------3--3-|-3h5---5-|
  T T P P  T P T P  T T P P T  T   T   P T

Chorus
|-----5-5------7--------------7----------------|
|----------------------------------------------|
|-3-x-----3/5--------3----5-x--------------3---|
|----------------3h5---5--------5-4-3--3h5---5-|
  T T P P T    P T   P T  T T P T T T  T   P T 

|-----5-5---9---8----x----------------|
|-------------------------------------|
|-3-x-----7---6----5--------------3---|
|----------------------5-4-3--3h5---5-|
  T T P P T P T P  T P T T T  T   T P 

|-----5-5------7--------------7----------------|
|----------------------------------------------|
|-3-x-----3/5--------3----5-x--------------3---|
|----------------3h5---5--------5-4-3--3h5---5-|
  T T P P T    P T   P T  T T P T T T  T   P T 

|-----5-5---9---8----x----------------|
|-----------------------------5---5---|
|-3-x-----7---6----5------------------|
|----------------------5-4-3----x---x-|
  T T P P T P T P  T P T T T  P T P T 

Bridge
|-------------------------------------------------------------------|
|-----------------------x---------5----x-x-x----------x-x-x---------|
|-5----3--------5----3----------7----5---------3h5--3-------------5-|
|---------3//5------------7-6-5--------------x--------------x-3h5---|
  T    T  T     T    T  P T T T T P  T P P T P T    T P P P T T   P

|----------------------------|
|--------8-8-8-x-----8-8-8-x-|
|----------------------------|
|-\\-6-x---------6-x---------|
  T  T T P P P P T T P P P P 

Guitar solo
|-----5-5------7--------------7----------------|
|----------------------------------------------|
|-3-x-----3/5--------3----5-x--------------3---|
|----------------3h5---5--------5-4-3--3h5---5-|
  T T P P T    P T   P T  T T P T T T  T   P T 

|-----5-5---9---8----x----------------|
|-------------------------------------|
|-3-x-----7---6----5--------------3---|
|----------------------5-4-3--3h5---5-|
  T T P P T P T P  T P T T T  T   P T 

|-----5-5------7--------------7----------------|
|----------------------------------------------|
|-3-x-----3/5--------3----5-x--------------3---|
|----------------3h5---5--------5-4-3--3h5---5-|
  T T P P T    P T   P T  T T P T T T  T   P T 

|-----5-5---9---8----x----------------|
|-----------------------------5---5---|
|-3-x-----7---6----5------------------|
|----------------------5-4-3----x---x-|
  T T P P T P T P  T P T T T  P T P T 
 
Riff A
|-------------------|
|-----8-8-8-x-------|
|-------------8h9p8-| x2 
|-6-x---------------|
  T T P P P P T 

|-----5-5-5-x-----------|---------------------|
|-------------12h13\\10-|-----2-2-2-x---------|
|-3-x-------------------|---------------------|
|-----------------------|-0-x---------0--0--0-|
  T T P P P P T           T T P P P P T  T  T

|-------------------|
|-----8-8-8-x-------|
|-------------8h9p8-| x2 
|-6-x---------------|
  T T P P P P T

Interlude                       x2
|-----5-5----9---9------5-5------|---------|
|--------------------------------|---------|
|-3-x------7---x----3-x----------|-----3---|
|---------------------------3--3-|-3h5---5-|
  T T P P  T P T P  T T P P T  T   T   P T 

Chorus
|-----5-5------7--------------7----------------|
|----------------------------------------------|
|-3-x-----3/5--------3----5-x--------------3---|
|----------------3h5---5--------5-4-3--3h5---5-|
  T T P P T   P  T   P T  T T P T T T  T   P T 

|-----5-5---9---8----x----------------|
|-------------------------------------|
|-3-x-----7---6----5--------------3---|
|----------------------5-4-3--3h5---5-|
  T T P P T P T P  T P T T T  T   P T

|-----5-5------7--------------7----------------|
|----------------------------------------------|
|-3-x-----3/5--------3----5-x--------------3---|
|----------------3h5---5--------5-4-3--3h5---5-|
  T T P P T    P T   P T  T T P T T T  T   P T

|-----5-5---9---8----x----------------|
|-----------------------------5---5---|
|-3-x-----7---6----5------------------| x3 chorus
|----------------------5-4-3----x---x-|
  T T P P T P T P  T P T T T  P T P T 

Outro
|-----5-5------7--------------7----------------|
|----------------------------------------------|
|-3-x-----3/5--------3----5-x--------------3---|
|----------------3h5---5--------5-4-3--3h5---5-|
  T T P P T    P T   P T  T T P T T T  T   P T

|-----5-5---9---8----x--------------------------------|
|------------------------------5-----5-----5-----5----|
|-3-x-----7---6----5--------------------------------3-|
|----------------------5-4-0h3---0h3---0h3---0h3------|
  T T P P T P T P  T P T T T   P T   P T   P T   P  T

            
            
Suggest correction
Creating personal tab
Creating personal tab
You can edit any tab online and save it as your Personal.

You can edit, replace or remove any tab part or add personal notes – all changes will be seen only by you.

Personal tabs can be accessed anytime from any device, even offline.
Learn more »
comments
print report bad tab
guest
You may want to rate the tab now too:
select rating
Wanna post a correction for this tab? Suggest correction