Oops, an error
Loading. Please wait.

Lets Go Bass Tab

61 views 9 this week
no commentswrite comment
1 2 3 4 5
3 more votes to show rating
add to favorites
launch autoscroll
font size
0
reset
guitar tuner
Autoscroll
slow
fast
+/-
esc
set tempo
stop
Help us to improve Ultimate-Guitar.com Take our survey!
×
Author
Difficulty
novice
About this tab version
Only one out there :D. Follows through the bass and gives full timing to the youtube video. Was this info helpful? Yes No
|----------------------|
|  LETS GO _ BASS TAB  |
|----------------------|
 Done by ear. Video at https://www.youtube.com/watch?v=52Gg9CqhbP8

Intro: 0:10
G|------------------------|
D|-5-5--------4-4---------|
A|-----5h6h7-------3h4h5--|
E|------------------------| X2

Verse:
G|----------------------------|------------------------------|
D|-5--7h6h5-5h6h7-7--5-5--4-4-|-5--7h6h5-5h6h7-7-7--5-5--4-4-|
A|----------------------------|------------------------------|
E|----------------------------|------------------------------| x3

Bridge:
G|----------------------------|
D|-5--7h6h5-5h6h7-7--5-5--4-4-|
A|----------------------------|
E|----------------------------| x1

Chorus: 
G|------------------------|
D|-5-5--------4-4---------|
A|-----5h6h7-------3h4h5--|
E|------------------------| x2

Chorus bridge:
G|----------------------------|
D|-5-5------------4-4---------|
A|-----5h6h7h8h7-------3h4h5--|
E|----------------------------| x1

Chorus: 
G|------------------------|
D|-5-5--------4-4---------|
A|-----5h6h7-------3h4h5--|
E|------------------------| x1

Verse + bridge 2    
G|----------------------------|------------------------------|
D|-5--7h6h5-5h6h7-7--5-5--4-4-|-5--7h6h5-5h6h7-7-7--5-5--4-4-|
A|----------------------------|------------------------------|
E|----------------------------|------------------------------| x4

Chorus: 
G|------------------------|
D|-5-5--------4-4---------|
A|-----5h6h7-------3h4h5--|
E|------------------------| x2

Chorus bridge:
G|----------------------------|
D|-5-5------------4-4---------|
A|-----5h6h7h8h7-------3h4h5--|
E|----------------------------| x1

Chorus: 
G|------------------------|
D|-5-5--------4-4---------|
A|-----5h6h7-------3h4h5--|
E|------------------------| x1

Verse:
G|----------------------------|------------------------------|
D|-5--7h6h5-5h6h7-7--5-5--4-4-|-5--7h6h5-5h6h7-7-7--5-5--4-4-|
A|----------------------------|------------------------------|
E|----------------------------|------------------------------| x1

At this point there is a whale and you could do anything!
I like to keep with figure of 8 notes so 5 then 3 then 5 then 3 looking like this:
G|---------------------------------|
D|---------------------------------|
A|-5-5-5-5-5-5-5-5-3-3-3-3-3-3-3-3-|
E|---------------------------------|
Do this around 3 times.

Chorus: 
G|------------------------|
D|-5-5--------4-4---------|
A|-----5h6h7-------3h4h5--|
E|------------------------| x2

Chorus bridge:
G|----------------------------|
D|-5-5------------4-4---------|
A|-----5h6h7h8h7-------3h4h5--|
E|----------------------------| x1

Chorus: 
G|------------------------|
D|-5-5--------4-4---------|
A|-----5h6h7\------3h4h5\-|
E|------------------------| x1

This is the quietest bit and is done on guitar but you could do it as:
G|-----------------------------------|
D|-----------------------------------|
A|-5~--5~--5--3-3-3-5~--5~--5--7-7-7-|
E|-----------------------------------|

Should be around 99% accurate. Have fun. Dave.
 | h - roll without need of strumming.
 | ~ - Vibrato
Suggest correction
Give kudos to tab author, rate the tab!
1 2 3 4 5
comments
print report bad tab
guest
You may want to rate the tab now too:
select rating
Wanna post a correction for this tab? Suggest correction