Oops, an error
Loading. Please wait.

Lets Go tab

version 1
version 1

Whole song

9,196 views 153 this week
no commentswrite comment
1 2 3 4 5
x 3
add to favorites
×
Save as Personal and add changes to this tab that will be seen only by you. Learn more ›
×
You can save this tab as Personal to edit and correct it or add notes. All changes will be seen only by you. Learn more »
launch autoscroll
font size
0
reset
how to read this tab
guitar tuner
edit
Autoscroll
slow
fast
+/-
esc
set tempo
stop
Author
Difficulty
intermediate
[Intro]

Riff in beginning and end of song:
e|---------------------------------------------------------------------------|
B|---------------------------------------------------------------------------|
G|---------------------------------------------------------------------------|
D|-4---4---4-4--4-4-4----4---4---4-6--6-6-6----------------------------------|
A|-5---5---5-5--2-2-2----5---5---5-7--7-7-7----------------------------------|
E|---------------------------------------------------------------------------|

  1st Guitar
e|--2-----2-----------0-------0-----|
B|-----0-----0-----3-------3--------|
G|----------------------------------| 
D|----------------------------------|
A|----------------------------------|
E|----------------------------------|(x4)

2nd Guitar
Bm D Bm Em

  1st Guitar
e|---------------------------------------------|
B|---------------------------------------------|
G|---------------------------------------------| 
D|---------------------------------------------|
A|---------0--2--4--4/5---------------0--2--4--|
E|--3---3------------------2---2---2-----------|(x2)

2nd Guitar
G G F#m A


[Verse 1]

Bm                         D
    Here I am tied and bound
            Em           Bm
    Every night feeling low
                           D     Em                   
    Bad days come back whatever
            Bm
    In the sun I bathe, in everyday light
          D                  Em             Bm     
    You draft me down for a split second tomorrow
                          D   Em 
    What am I supposed to do
    Bm                        D
    I know you would make me happy
                     G
    Girl I found my way out
               D
    I found it at last now I'm sober
    G           D
    Wouhouwhou

    Let's go
    G    G    F#m    A
    Hey! (Whouhouwhou)
    Hey!
    Your cryin'
    How sweet the sound
Bm                       D
    Silence's on I attempt
              Em               Bm
    Bow and scrape, tope the line
                       D      Em
    Nev/er get back together
               Bm
    With the same old style rand down my life
           D              Em             Bm
    You drag and drop, attract me after all
                      D        Em
    Anyway I'm gone to/morrow
     Bm                        D
    I know you would make me happy
                    G
    Girl I found my way out
               D
    I found it at last now I'm sober
    Bm                       D
    I know it would make it concrete
    
    Now you're cryin'
    G
   (Whouhouwhou)
    How sweet a sound
    Let's go
    G    G    F#m    A 
    Hey!
    (Whouhouwhouwhou)
    Let's go
    Hey!
    Your cryin'
    How sweet a sound
    Hey!
    Let's go!
    We're back to back for hours
    We're weak and what they say
    'bout loving like we do
    We'll never give this up
    Your cryin'
    How sweet the sound


[Outro]

  1st Guitar
e|--2-----2-----------0-------0-----|
B|-----0-----0-----3-------3--------|
G|----------------------------------| 
D|----------------------------------|
A|----------------------------------|
E|----------------------------------|(x4)

2nd Guitar
Bm D Bm Em

  1st Guitar
e|---------------------------------------------|
B|---------------------------------------------|
G|---------------------------------------------| 
D|---------------------------------------------|
A|---------0--2--4--4/5---------------0--2--4--|
E|--3---3------------------2---2---2-----------|(x2)

2nd Guitar
G G F#m A

Play Riff again.



************************************

| /  Slide up

************************************

            
            
Suggest correction
Creating personal tab
Creating personal tab
You can edit any tab online and save it as your Personal.

You can edit, replace or remove any tab part or add personal notes – all changes will be seen only by you.

Personal tabs can be accessed anytime from any device, even offline.
Learn more »
Give kudos to tab author, rate the tab!
1 2 3 4 5
comments
print report bad tab
guest
You may want to rate the tab now too:
select rating
Wanna post a correction for this tab? Suggest correction