Oops, an error
Loading. Please wait.

Lets Go Tab

version 2
version 2

Whole song

295 views 18 this week
no commentswrite comment
1 2 3 4 5
1 last vote to show rating
add to favorites
launch autoscroll
font size
0
reset
how to read this tab
guitar tuner
Autoscroll
slow
fast
+/-
esc
set tempo
stop
Help us to improve Ultimate-Guitar.com Take our survey!
×
Author
Difficulty
intermediate
Guitar 1


[0:00 - 0:10]

e|--------------------------------------------|
B|--------------------------------------------|
G|--------------------------------------------| 
D|---------------------------------9--9--9----|
A|-9--9--9--x-x-5-5-5-9--9--9--x-x-11-11-11---|
E|-10-10-10-x-x-7-7-7-10-10-10-x-x------------|(x2)

Guitar 2


[0:00 - 0:10]

e|-----------------|
B|-7---7-----5---5-|
G|---4--4--7---7---| 
D|-----------------| 
A|-----------------|
E|-----------------|(x6)

Guitar 1


[0:11 - 0:21]

e|-----------------------|
B|-----------------------|
G|-----------------------| 
D|-----------------------|
A|-----------------------|
E|-3-3/7h9/10--2-2/5h7/9-|(x2)


[0:22 - 0:42]

e|------------------------------------------------|
B|------------------------------------------------|
G|------------------------------------------------| 
D|-------------------------------------9--9--9----| <
A|-9--9--9--9--9--5-5-5-9--9--9--9--9--11-11-11---|
E|-10-10-10-10-10-7-7-7-10-10-10-10-10------------|(x2)
                                                        

e|------------------------------------------------|
B|------------------------------------------------|
G|------------------------------------------------| 
D|----------------------------9---9--9--9---------| <
A|-9--9--9--9--9--5-5-5-9--9--11--11-11-11--------|
E|-10-10-10-10-10-7-7-7-10-10---------------------|


[0:42 - 0:58]

e|-----------------|
B|-7---7-----5---5-|
G|---4--4--7---7---|  
D|-----------------| 
A|-----------------|
E|-----------------|(x6)

Guitar 2


[0:55]

e|-------------------|
B|-3-3-3-3/5-5-5-5-5-|
G|-------------------|
D|-------------------|
A|-------------------|
E|-------------------|


Guitar 1


[0:56-1:19]

e|-----------------------|
B|-----------------------|
G|-----------------------| 
D|-----------------------|
A|-----------------------|
E|-3-3/7h9/10--2-2/5h7/9-|(x2)


e|----------------------------------|
B|----------------------------------|
G|----------------------------------|
D|----------------------------------|
A|----------------------------------|
E|-3-3-3-3/7h9/10-12--2-2-2-2/5h7/9-|

e|-----------------------|
B|-----------------------|
G|-----------------------|
D|-----------------------|
A|-----------------------|
E|-3-3/7h9/10--2-2/5h7/9-|


[1:20]

e|----|
B|----|
G|----|
D|----|
A|-9--|
E|-10-|

"...never get back together..."


[1:29]

e|---------------|
B|---------------|
G|---------------|
D|---9---9--9--9-|
A|--11--11-11-11-|
E|---------------|


[1:30 - 1:41]

e|------------------------------------------------|
B|------------------------------------------------|
G|------------------------------------------------|
D|-------------------------------------9--9--9----|
A|-9--9--9--9--9--5-5-5-9--9--9--9--9--11-11-11---|
E|-10-10-10-10-10-7-7-7-10-10-10-10-10------------|


e|--------------------------------------|
B|--------------------------------------|
G|--------------------------------------|
D|--------------------------------------|
A|-9--9--9--9--9--5-5-5-9--9--5--5-5-5--|
E|-10-10-10-10-10-7-7-7-10-10-7--7-7-7--|


[1:42 - 2:03]

e|-----------------|
B|-7---7-----5---5-|
G|---4--4--7---7---|  
D|-----------------| 
A|-----------------|
E|-----------------|(x8)


[2:04 - 2:24]

e|---------------------------|
B|---------------------------|
G|---------------------------| 
D|---------------------------|
A|---------------------------|
E|-3-(3)-3/7h9/10--2-2/5h7/9-|(x2)


e|----------------------------------|
B|----------------------------------|
G|----------------------------------|
D|----------------------------------|
A|----------------------------------|
E|-3-3-3-3/7h9/10-12--2-2-2-2/5h7/9-|


e|-----------------------------------|
B|-----------------------------------|
G|-----------------------------------| 
D|-----------------------------------|
A|-----------------------------------|
E|-3-(3)-3/7h9/10-9-9-9-9-9-9-9-9----|(x2)


[2:25-2:48]

e|--------------|
B|-/7-7---5---5-|
G|------7---7---|
D|--------------| 
A|--------------|
E|--------------|(x4)

e|-----------------------------------------------------------------------------------------------|
B|-12-12-12-12-12-12-12-12-12-12-12-12-12-12-12-12-10-10-10-10-10-10-10-10-10--------------------|
G|-----------------------------------------------------------------------------------------------|
D|-----------------------------------------------------------------------------------------------|
A|-----------------------------------------------------------------------------------------------|
E|-----------------------------------------------------------------------------------------------|
                                                                                                  Tremolo pick
e|-----------------------------------------------------------------------------------------------|
B|-12-12-12-12-12-12-12-12-12-12-12-12-12-12-12-12-10-10-10-10-10-10-10-10-10/7-7-7-7-7-7--------|
G|-----------------------------------------------------------------------------------------------|
D|-----------------------------------------------------------------------------------------------|
A|-----------------------------------------------------------------------------------------------|
E|-----------------------------------------------------------------------------------------------|


[2:48-3:07]

e|-----------------------|
B|-----------------------|
G|-----------------------|
D|-----------------------|
A|-----------------------|
E|-2-2-2-2/5h7/9---------|

e|---------------------------|
B|---------------------------|
G|---------------------------|
D|---------------------------|
A|---------------------------|
E|-3-3/7h9/10--2-2/5h7/9-----|

e|----------------------------------|
B|----------------------------------|
G|----------------------------------|
D|----------------------------------|
A|----------------------------------|
E|-3-3-3-3/7h9/10-12--2-2-2-2/5h7/9-|

e|-----------------------|
B|-----------------------|
G|-----------------------|
D|-----------------------|
A|-----------------------|
E|-3-3/7h9/10--2-2/5h7/9-|


[3:08 - 3:23]

e|----|
B|----|
G|----|
D|----|
A|-9--|
E|-10-|

e|--------------------------------------------|
B|--------------------------------------------|
G|--------------------------------------------|
D|---------------------------------9--9--9----|
A|-9--9--9--x-x-5-5-5-9--9--9--x-x-11-11-11---|
E|-10-10-10-x-x-7-7-7-10-10-10-x-x------------|


Guitar 2 

[3:23]

e|---------|
B|-7/5/7---|
G|---------|
D|---------|
A|---------|
E|---------|


************************************

| x    Dead note
| (n)  Ghost note
| h    Hammer-on
| /    Slide up

************************************
Suggest correction
Give kudos to tab author, rate the tab!
1 2 3 4 5
comments
print report bad tab
guest
You may want to rate the tab now too:
select rating
Wanna post a correction for this tab? Suggest correction