Oops, an error
Loading. Please wait.

Homies Unite Bass Tab

1,410 views 3 this week
no commentswrite comment
1 2 3 4 5
please rate
add to favorites
launch autoscroll
font size
0
reset
guitar tuner
Autoscroll
slow
fast
+/-
esc
set tempo
stop
Help us to improve Ultimate-Guitar.com Take our survey!
×
Contributor
Difficulty
intermediate
Homies Unite 
By: Stuck In your Radio
Tuning: EADG
Intro
G|---------------------------------------------------------------|
D|---------------------------------------------------------------|
A|-5-----------5-------------------------------------------------|
E|----5---3-------5---3\0----------------------------------------|

G|---------------------------------------------------------------|
D|-0-0-4-0-5-0-4-0-5-0-4-0-7-5-4-------------2-4h2-2--4h2-2------|
A|-------------------------------0-0-4-0-0-0---------------------|
E|---------------------------------------------------------------|

G|---------------------------------------------------------------|
D|-0-0-4-0-5-0-4-0-5-0-4-0-7-5-4--5-5-5-5-4-4-4-4-2-2-2-2-2-4-2--|
A|---------------------------------------------------------------|
E|---------------------------------------------------------------|

Verse 1
G|----------------------------------------------------------------|
D|----------------------------------------------------------------|
A|-5-5-5-5-5-5-5-5-5-5-5-5-5-5-5-5--------------------------------|X2
E|---------------------------------5-5-5-5-5-5-5-5-3-3-3-3-3-3-3-3|

G|----------------------------------------------------------------|
D|----------------------------------------------------------------|
A|-5-5-5-5-5-5-5-5-5-5-5-5-5-5-5-5--------------------------------|
E|---------------------------------3-3-3-3-3-3-3-3-3-3-3-3-3-3-3-3|

G|---------------------------------------------------------------|
D|---------------------------------------------------------------|
A|-0-2-3-5-5-5-5-5-5-5-5-5-5-5-5-5-5-5---------------------------|
E|-------------------------------------3-3-3-3-3-3-3-3-----------|

G|----------------------------------------------------------------|
D|----------------------------------------------------------------|
A|-5-5-5-5-5-5-5-5-5-5-5-5-5-5-5-5--------------------------------|X2
E|---------------------------------5-5-5-5-5-5-5-5-3-3-3-3-3-3-3-3|

G|---------------------------------------------------------------|
D|---------------------------------------------------------------|
A|-5-5-5-5-5-5-5-5-----------------------------------------------|
E|-------------------5-5-5-5-5-5-5-5---3-3-3---5-5-5-5-5-5-5-5---|

Chorus
G|-----------------------------------------------------------------|
D|-----------------------------------------------------------------|
A|-5-5-5-5-5-5-5-5-5-5-5-5-5-5-5-5---------------------------0-2-3-|
E|---------------------------------3-3-3-3-3-3-3-3-3-3-3-3-3-------|

G|---------------------------------------------------------------|
D|--------------------------4-5---------------5-5-5-5-5-5-5-5----|
A|5-5-5-5-5-5-5-5-5-5-5-5-5--------------------------------------|
E|------------------------------3-3-3-3-3-3-3--------------------|

G|---------------------------------------------------------------|
D|---------------------------------------------------------------|
A|-5--5--5-5-5---------------------------------------------------|
E|-------------5--55--5-5-5h7--7--7-7-7-3--33--3-3-3-------------|

G|-----------------------------------------------------------------------|
D|-----------------------------------------------------------------------|
A|-----------------------------------------------------------------------|
E|-7--7--7-7-7--5--55--5-5-5-3--3--3-3-3-3--33-3-3-3--7--7-7-7-5--5-5-5-3|

Bridge
G|---------------------------------------------------------------|
D|---------------------------------------------------------------|
A|-5-----------5-----------5-----------5---------5---------------|
E|-----5-3---5-----5-3---5-----5-3---5-----5-3-------3-----------|

G|----------------------------------------------------------------|
D|----------------------------------------------------------------|
A|-5-5-5-5-5-5-5-5-5-5-5-5-5-5-5-5--------------------------------|X2
E|---------------------------------3-3-3-3-3-3-3-3-3-3-3-3-3-3-3-3|

G|---------------------------------------------------------------|
D|---------------------------------------------------------------|
A|-5--5--5-5-5---------------------------------------------------|
E|-------------5--55--5-5-5h7--7--7-7-7-3--33--3-3-3-------------|

G|-----------------------------------------------------------------------|
D|-----------------------------------------------------------------------|
A|-----------------------------------------------------------------------|
E|-7--7--7-7-7--5--55--5-5-5-3--3--3-3-3-3--33-3-3-3--7--7-7-7-5--5-5-5-3|

Outro
G|---------------------------------------------------------------|
D|---------------------------------------------------------------|
A|-5-5-5-555--------------------------5-5------------------------|X2
E|----------5-5-5-555-3-3-3-33333-5-5----------------------------|

| /  slide up
| \  slide down
| h  hammer-on
| p  pull-off
| ~  vibrato
| +  harmonic
| x  Mute note
comments
We did not receive enough feedback on this tab! Please rate:
print report bad tab
1 2 3 4 5
I want to post or [tab]
guest
You may want to rate the tab now too:
select rating
Please do not post tabs as comments. Select "correction" instead!