Oops, an error
Loading. Please wait.

Love And Chaos Bass

version 1
version 1

Whole song

by Stun
70 views 1 this week
no commentswrite comment
1 2 3 4 5
3 more votes to show rating
add to favorites
×
Save as Personal and add changes to this tab that will be seen only by you. Learn more ›
×
You can save this tab as Personal to edit and correct it or add notes. All changes will be seen only by you. Learn more »
save as personal
new!
launch autoscroll
font size
0
reset
guitar tuner
Autoscroll
slow
fast
+/-
esc
set tempo
stop
Intro
G: ------------------------------------------|
D: ------------------------------------------|
A: ------------------------------------------|
E: 00-0—55-5—22-2—77-7-----------------------|

PreVerse
G: ------------------------------------------|
D: 22222222-----------55555555---------------|
A: --------122222222-5--------455555555------|
E: ------------------------------------------|

G: ------------------------------------------|
D: ------------------------------------------|
A: ------------------------------------------|
E: 00000000-33333333-00000000-77777777-------|

Verse X2                                     1st   2nd
G: --------44-------------------77--------|-----|-----|
D: 22222222----------44-55555555----------|-----|-----|
A: ----------22222222-------------55555555|-757-|-5~--|
E: ---------------------------------------|-----|-----|

PreChorus
G: ------------------------------------------|
D: ------------------------------------------|
A: ------------------------------------------|
E: 00000000/55555555/99999999/88888888-------|

Chorus
G: ------------------------------------------|
D: ------------------------------------------|
A: ------------------------------3-55555555--|
E: 00000000-5-77777777-5-33333333------------|

PreVerse X1
Verse X2
PreChorus X1
Chorus X2

Solo                                       1st   2nd
G: --------------------------------------|----|----|
D: 22222222------------55555555----------|----|----|
A: ---------122222222-5---------55555555-|-45-|-5--|
E: --------------------------------------|----|----|

G: --------------------------------------------|
D: --------------------------------------------|
A: --------------------------------------------|
E: 00000000-33333333-00000000-77777777---------|

Verse X2
Chorus X6

End On
G: ------------------------------------------|
D: ------------------------------------------|
A: ------------------------------------------|
E: 0-0-0-0 9~/-------------------------------|
Suggest correction
Give kudos to tab author, rate the tab!
1 2 3 4 5
comments
print report bad tab
guest
Wanna post a correction for this tab? Suggest correction