Oops, an error
Loading. Please wait.

State Of Mind Tab

67 views 1 this week
no commentswrite comment
1 2 3 4 5
please rate
add to favorites
launch autoscroll
font size
0
reset
how to read this tab
guitar tuner
Autoscroll
slow
fast
+/-
esc
set tempo
stop
Help us to improve Ultimate-Guitar.com Take our survey!
×
Author
The song is mostly arpegiated. really easy really catchy. There are a few other riffs 
are in it that i'm not sure about. but if you know the c pentatonic you can add your 
do that.
-Tom

p- palmute.

      C             F                       ( C pent. riff)
e|---------------------------------------------------------------------------|
B|---------------------------------------------------------------------------|
G|----------5----------------------------------------------------------------|
D|-------5--------------------5------5---------------------------------------|
A|----3--------------------3------3------------------------------------------|
E|-----------------p1--p1----------------------------------------------------|


Repeat. During the verse there a few different variations like

e|------------------|
B|------------------|
G|--------------5---|
D|--------5--5------|
A|-----3------------|
E|------------------|

Nothing complicated. I like to ad-lib it.

Then play


e|--------------------------------------------------------------------------|
B|--------------------------------------------------------------------------|
G|--------------------------------------------------------------------------|
D|---5----------3---------------5-------------------------------------------|
A|---5-(x8)-----3---(x4) ----3----3-----------------------------------------|
E|---3----------1---------1-------------------------------------------------|

then do. C (4 beats of chops. B flat C.

Play twice.

Thats basically it. THere is a solo but i just like to improvise that. Remember its the 
pentatonic. I'll write it out right here. Thank you.

Tom

e|-----------------------------------------8----11--------------------------|
B|------------------------------8-----11------------------------------------|
G|----------------------8----10---------------------------------------------|
D|------------------10------------------------------------------------------|
A|------------8-------------------------------------------------------------|
E|----8---11----------------------------------------------------------------|
Suggest correction
What's this?
You can suggest a correction to this tab. Community and Mods will review your correction and vote to approve or reject it.
comments
We did not receive enough feedback on this tab! Please rate:
print report bad tab
1 2 3 4 5
guest
You may want to rate the tab now too:
select rating
Please do not post tabs as comments. Select "correction" instead!