Oops, an error
Loading. Please wait.

Fly Away tab

version 1
version 1

Whole song

1,570 views 1 this week
2 commentsread comments
1 2 3 4 5
2 more votes to show rating
add to favorites
×
Save as Personal and add changes to this tab that will be seen only by you. Learn more ›
×
You can save this tab as Personal to edit and correct it or add notes. All changes will be seen only by you. Learn more »
launch autoscroll
font size
0
reset
how to read this tab
guitar tuner
edit
Autoscroll
slow
fast
+/-
esc
set tempo
stop
Author
-------------------------------------------------------------------------------
                             Fly away - SuD
-------------------------------------------------------------------------------
Tabbed by: iiro
Email: blooddrunk_96@hotmail.com

Tuning: Standard

intro

----------------9-7----------|
--------9-----9-----9-7------|
----6-9---6-9-----------9-8--|
-----------------------------|
-----------------------------|2x
-----------------------------|

-----------------|
-------9-7-------|
---6-9-----9-8-6-|
-----------------|
-----------------|
-----------------|

Verse
---------------------------------------------------------------------------|
---------------------------------------------------------------------------|
---------------------------------------------------------------------------|
---------------------------------------------------------------------------|
---------------------------------------------------------------------------|
2-2-2-2-2-2-2-2-2-2-2-2-2-2-2-2-2-2-2-2-2-2-2-2-2-2-2-2-2-2-2-2-2-2-2-2-2--|
PM.......................................................................
Looking over million parts of my once called life, Shattered in infitiny, cut out by own knife

Bridge
---------------------------------------------------------------------------|
---------------------------------------------------------------------------|
---------------------------------------------------------------------------|
---------------------------------------------------------------------------|
-12----------14----------------------15------10-------------------8-8-8-8-8|
-10----------12----------------------13-------8-------------------6-6-6-6-6|
PM
The rain is coming, Storm clouds are gathering above I know it's time for me to go

----------------9-7----------|----------------|                                                
--------9-----9-----9-7------|-----9-7--------|                                          
----6-9---6-9-----------9-8--|-6-9-----9-8-6--|                                          
-----------------------------|----------------|                                            
-----------------------------|----------------|                                         
-----------------------------|----------------|                                        
\           2 X              /
I fly away I am leaving this kingdom
Passing hell all for my kingdom come All for a life one day

Verse
---------------------------------------------------------------------------|
---------------------------------------------------------------------------|
---------------------------------------------------------------------------|
---------------------------------------------------------------------------|
---------------------------------------------------------------------------|
2-2-2-2-2-2-2-2-2-2-2-2-2-2-2-2-2-2-2-2-2-2-2-2-2-2-2-2-2-2-2-2-2-2-2-2-2--|
PM.......................................................................
If only I could take you with me, But the past holds you enslaved I have to let go of it or will
 tear me apart

Bridge
---------------------------------------------------------------------------|
---------------------------------------------------------------------------|
---------------------------------------------------------------------------|
---------------------------------------------------------------------------|
-12----------14----------------------15------10-------------------8-8-8-8-8|
-10----------12----------------------13-------8-------------------6-6-6-6-6|
PM
The rain is coming, Storm clouds are gathering above I know it's time for me to go

----------------9-7----------|----------------|                                                
--------9-----9-----9-7------|-----9-7--------|                                          
----6-9---6-9-----------9-8--|-6-9-----9-8-6--|                                          
-----------------------------|----------------|                                            
-----------------------------|----------------|                                         
-----------------------------|----------------|                                        
\           2 X              /
I fly away I am leaving this kingdom
Passing hell all for my kingdom come All for a life one day

Solo
This is a half of the solo, but i’m tabbing that other half part ;)
e|---------------------------------------------------------------6-6h8h9^-10-11|
B|----------/11^-9-10-14^--10-9-15~--9-7-5^--6-7-8-9p8-5^-8-9-13---------------|
G|-6^-6h8h9^-------------------------------------------------------------------|
D|-----------------------------------------------------------------------------|
A|-----------------------------------------------------------------------------|
E|-----------------------------------------------------------------------------|

e|-11-9-8-6^--/12-10-11-15^--11-10-14^14^14^-------------------------------|
B|-------------------------------------------------------------------------|
G|-------------------------------------------------------------------------|
D|-------------------------------------------------------------------------|
A|-------------------------------------------------------------------------|
E|-------------------------------------------------------------------------|


----------------9-7----------|----------------|                                                
--------9-----9-----9-7------|-----9-7--------|                                          
----6-9---6-9-----------9-8--|-6-9-----9-8-6--|                                          
-----------------------------|----------------|                                            
-----------------------------|----------------|                                         
-----------------------------|----------------|                                        
\           2 X              /
I fly away I am leaving this kingdom
Passing hell all for my kingdom come All for a life one day

----------------9-7----------|----------------|                                                
--------9-----9-----9-7------|-----9-7--------|                                          
----6-9---6-9-----------9-8--|-6-9-----9-8-6--|                                          
-----------------------------|----------------|                                            
-----------------------------|----------------|                                         
-----------------------------|----------------|                                        
\           2 X              /
I fly away I am leaving this kingdom
Passing hell all for my kingdom come All for a life one day
                                            | 
                                      dive _/



My Firs real tab ;) Enjoy
hate post: Blooddrunk_96@hotmail.com

| /  slide up
| \  slide down
| h  hammer-on
| p  pull-off
| ~  vibrato
| +  harmonic
| x  Mute note
===============================================================================
Suggest correction
Creating personal tab
Creating personal tab
You can edit any tab online and save it as your Personal.

You can edit, replace or remove any tab part or add personal notes – all changes will be seen only by you.

Personal tabs can be accessed anytime from any device, even offline.
Learn more »
Give kudos to tab author, rate the tab!
1 2 3 4 5
comments
print report bad tab
2 comments total.
0 reply
Kitarasande 166 Jul 16, 2008 10:40 AM

Mahtavaa :D

0 reply
-Finguitar- 78 Jul 20, 2008 04:25 AM

I'm Working solo. half done

guest
You may want to rate the tab now too:
select rating
Wanna post a correction for this tab? Suggest correction