Oops, an error
Loading. Please wait.

Nine Thou Superstars Remix Tab

version 1
version 1

Whole song

Interactive

15,479 views 15 this week
12 commentsread comments
1 2 3 4 5
x 19
add to favorites
launch autoscroll
font size
0
reset
how to read this tab
guitar tuner
Autoscroll
slow
fast
+/-
esc
set tempo
stop
Help us to improve Ultimate-Guitar.com Take our survey!
×
Author
Difficulty
Tuning
novice
C# G# C# F# A# D#
Styles Of Beyond - Nine Thou (Superstars Remix)
tabbed by: prikaze

tuning: drop D flat
(Db Ab Db Gb Bb Eb)

NOTE: for the intro and the breakdown which are more or less the same,
some kind of an effect is used, i don't know what tho, sry...
NOTE2:if the number of times i indicated is not right, then it's b-cuz
i have the NFSMW version, and as it is known, they sometimes re-edit
the songs (cutting out or shortening some parts)

Intro
1:|-----------------|-----------------|
2:|-----------------|-----------------|
3:|-----------------|-----------------|
4:|-0-7-7-005-08-07-|-0-7-7--6--5--3--|
5:|-----------------|--------6--5--3--|
6:|-----------------|--------6--5--3--|

main riff
   3x                 4th time
1:|------------------|-----------------|
2:|------------------|-----------------|
3:|------------------|-----------------|
4:|-0-7-7-05-08-07-7-|-0-7-7--6--5--3--|
5:|-0-7-7-05-08-07-7-|-0-7-7--6--5--3--|
6:|-0-7-7-05-08-07-7-|-0-7-7--6--5--3--|let them ring

   3x               4th time
1:|----------------|-----------------|
2:|----------------|-----------------|
3:|----------------|-----------------|
4:|-0-7-7--5--8--7-|-0-7-7--6--5--3--|
5:|-0-7-7--5--8--7-|-0-7-7--6--5--3--|
6:|-0-7-7--5--8--7-|-0-7-7--6--5--3--|
   don't let ring    let ring

distorted bass part before verse
  1st time
1:|-----------------------------------|
2:|-----------------------------------|
3:|-----------------------------------|
4:|-0-7-8-7-0-7-8-7-0-7-8-7-10-10-8-7-|

  2nd time
1:|-----------------------------------|
2:|-----------------------------------|
3:|-----------------------------------|
6:|-0-7-8-7-0-7-8-7-0-7-8-7-----------|

verse
  3x                 4th time
1:|-----------------|-------------------|
2:|-----------------|-------------------|
3:|-----------------|-------------------|
4:|-0-7-8-7---7-8-7-|-0-7-8-7-10-10-8-7-|
5:|-0-7-8-7---7-8-7-|-0-7-8-7-10-10-8-7-|
6:|-0-7-8-7---7-8-7-|-0-7-8-7-10-10-8-7-|

  2x                 
1:|-----------------|
2:|-----------------|
3:|-----------------|
4:|-0-7-8-7---7-8-7-|
5:|-0-7-8-7---7-8-7-|
6:|-0-7-8-7---7-8-7-|

1:|-----------------------------------------------------------|
2:|-----------------------------------------------------------|
3:|-----------------------------------------------------------|
4:|-7-7---7---7-7-7---7---7-7-7---7---7-7-7---7--7--7-7-7---7-|
5:|-7-7---7---7-7-7---7---7-7-7---7---7-7-7---7--7--7-7-7---7-|
6:|-7-7---7---7-7-7---7---7-7-7---7---7-7-7---7--7--7-7-7---7-|

1:|--------------------------------------|
2:|--------------------------------------|
3:|--------------------------------------|
4:|-7-7-7---7---7-7-7---7---7-7----------|
5:|-7-7-7---7---7-7-7---7---7-7----------|
6:|-7-7-7---7---7-7-7---7---7-7----------|

pre-chorus
1:|-----------------------------------------------------------------|
2:|-----------------------------------------------------------------|
3:|-----------------------------------------------------------------|
4:|-2-2---0-2-2---0-3-3---0-3-3---0-2-2---0-2-2---0-3-3-3-3-3-3-3-3-|
5:|-2-2---0-2-2---0-3-3---0-3-3---0-2-2---0-2-2---0-3-3-3-3-3-3-3-3-|
6:|-2-2---0-2-2---0-3-3---0-3-3---0-2-2---0-2-2---0-3-3-3-3-3-3-3-3-|

1:|-------------------------------------------|
2:|-(3)---------------(9)---------------------|
3:|-(2)---------------(8)---------------------|
4:|--0--------3--------6--------5-5-5-5--3--6-|
5:|--0--------3--------6--------5-5-5-5--3--6-|
6:|--0--------3--------6--------5-5-5-5--3--6-|

chorus
   3x                 4th time
1:|------------------|----------------------|
2:|------------------|----------------------|
3:|------------------|----------------------|
4:|-0-7-7-05-08-07-7-|-0-7-7--6--5--3-0~-//-|
5:|-0-7-7-05-08-07-7-|-0-7-7--6--5--3-0~-//-| / = slide up
6:|-0-7-7-05-08-07-7-|-0-7-7--6--5--3-0~-//-|

verse 2
distorted bass (or guitar on the lowest srtring)
  3x                 4th time
1:|-----------------|-------------------|
2:|-----------------|-------------------|
3:|-----------------|-------------------|
4:|-0-7-8-7---7-8-7-|-0-7-8-7-10-10-8-7-|

1:|-----------------|-------------------|
2:|-----------------|-------------------|
3:|-----------------|-------------------|
4:|-----------------|---------10-10-8-7-|
5:|-----------------|---------10-10-8-7-|
6:|-----------------|---------10-10-8-7-|

  3x                 4th time
1:|-----------------|-------------------|
2:|-----------------|-------------------|
3:|-----------------|-------------------|
4:|-0-7-8-7---7-8-7-|-0-7-8-7-10-10-8-7-|
5:|-0-7-8-7---7-8-7-|-0-7-8-7-10-10-8-7-|
6:|-0-7-8-7---7-8-7-|-0-7-8-7-10-10-8-7-|

1:|-----------------------------------------------|
2:|-----------------------------------------------|
3:|-----------------------------------------------|
4:|-0-0---0---0-0-0---0---0-0-0---0---0-0-0---0---|
5:|-0-0---0---0-0-0---0---0-0-0---0---0-0-0---0---|
6:|-0-0---0---0-0-0---0---0-0-0---0---0-0-0---0---|

1:|------------------------------------------------------------|
2:|------------------------------------------------------------|
3:|------------------------------------------------------------|
4:|-0-0-0-1-0---0-1-0-0-0-1-0---0-1-0-0-0-1-0---0-1-0-0--------|
5:|-0-0-0-1-0---0-1-0-0-0-1-0---0-1-0-0-0-1-0---0-1-0-0--------|
6:|-0-0-0-1-0---0-1-0-0-0-1-0---0-1-0-0-0-1-0---0-1-0-0--------|

pre-chorus
1:|-----------------------------------------------------------------|
2:|-----------------------------------------------------------------|
3:|-----------------------------------------------------------------|
4:|-2-2---0-2-2---0-3-3---0-3-3---0-2-2---0-2-2---0-3-3-3-3-3-3-3-3-|
5:|-2-2---0-2-2---0-3-3---0-3-3---0-2-2---0-2-2---0-3-3-3-3-3-3-3-3-|
6:|-2-2---0-2-2---0-3-3---0-3-3---0-2-2---0-2-2---0-3-3-3-3-3-3-3-3-|

1:|-------------------------------------------|
2:|-(3)---------------(9)---------------------|
3:|-(2)---------------(8)---------------------|
4:|--0--------3--------6--------5-5-5-5--3--6-|
5:|--0--------3--------6--------5-5-5-5--3--6-|
6:|--0--------3--------6--------5-5-5-5--3--6-|

chorus
   3x                 4th time
1:|------------------|-----------------|
2:|------------------|-----------------|
3:|------------------|-----------------|
4:|-0-7-7-05-08-07-7-|-0-7-7--6--5--3--|
5:|-0-7-7-05-08-07-7-|-0-7-7--6--5--3--|
6:|-0-7-7-05-08-07-7-|-0-7-7--6--5--3--|let them ring

verse 3
bass
   1st time                         the rest of the times (3x)                               
1:|-------------|------------------|-------------|------------------|
2:|-------------|------------------|-------------|------------------|
3:|-------------|------------------|-------------|------------------|
4:|-00-07-05-08-|-00707-05-08--7\\-|-0--07-05-08-|-00707-05-08--7\\-|

4x
1:|-----------------|
2:|-----------------|
3:|-----------------|
4:|-0-7-7--5--8-----|
5:|-0-7-7--5--8-----|
6:|-0-7-7--5--8-----|

5th time bass
1:|-----------------|
2:|-----------------|
3:|-----------------|
4:|-0-7-7--5--8--7\-|

6th time
1:|------------------|
2:|------------------|
3:|------------------|
4:|-0-7-7--5--8--7-0-|
5:|-0-7-7--5--8--7-0-|
6:|-0-7-7--5--8--7-0-|

breakdown
   3x                4th time (not sure about the end, cuz it's hard to hear)
1:|------------------|------------------|
2:|------------------|------------------|
3:|------------------|------------------|
4:|-00-7-7-005-08-07-|-00-7-7-00--------|
5:|------------------|------------------|
6:|------------------|------------------|
                                 "wassup now!"

end chorus
   3x                 4th time
1:|------------------|-----------------|
2:|------------------|-----------------|
3:|------------------|-----------------|
4:|-0-7-7-05-08-07-7-|-0-7-7--6--5--3--|
5:|-0-7-7-05-08-07-7-|-0-7-7--6--5--3--|
6:|-0-7-7-05-08-07-7-|-0-7-7--6--5--3--|

outro
1:|------------------------------------------|
2:|------------------------------------------|
3:|------------------------------------------|
4:|-0-7-7--6--5--3-6--5--3-6--5--3-6--5--3-0-|
5:|-0-7-7--6--5--3-6--5--3-6--5--3-6--5--3-0-|
6:|-0-7-7--6--5--3-6--5--3-6--5--3-6--5--3-0-|

i'm not saying my tab is 100% correct, cuz i'm not that sure about it, but
i think it's close, 
thanks;)
Suggest correction
comments
print report bad tab
12 comments total. Showing first comments.
0 reply
zoastev 253 Oct 02, 2006 09:29 AM

nice tab :) yea they do cut it short at the intro
the iTunes version has the full intro on it
the real only mistake u made was the tunning its not drop D its C# G# C# F# A# D# great tab :) keep up the good work

-1 reply
Logan_B 10 Jan 06, 2007 06:38 PM

by the way, this tab is not even close, look at the other tab.

0 reply
prikaze 135 Jan 06, 2007 07:29 PM

quote:"[01/06/2007 - 06:38 pm] by Logan_B : |
by the way, this tab is not even close, look at the other tab. "

hahhaha :D :D
i bet u wrote the other tab, i could also say to the other tab: it aint even close, look at this one.
if you have a slight musical hearing, you'll relaize which one is closer :D :D
peace

guest
You may want to rate the tab now too:
select rating
Wanna post a correction for this tab? Suggest correction