Oops, an error
Loading. Please wait.

Nine Thou Superstars Remix Tab

version 1
version 1

Whole song

Interactive

16,397 views 48 this week
12 commentsread comments
1 2 3 4 5
x 20
add to favorites
launch autoscroll
font size
0
reset
how to read this tab
guitar tuner
Autoscroll
slow
fast
+/-
esc
set tempo
stop
Author
Difficulty
Tuning
novice
C# G# C# F# A# D#
Tuning: drop D flat
(Db Ab Db Gb Bb Eb)

[Intro]
D#|----------------|-----------------|
A#|----------------|-----------------|
F#|----------------|-----------------|
C#|0-7-7-005-08-07-|-0-7-7--6--5--3--|
G#|----------------|--------6--5--3--|
C#|----------------|--------6--5--3--|

[main riff]
      (3x )                4th time
D#|-----------------|-----------------|
A#|-----------------|-----------------|
F#|-----------------|-----------------|
C#|0-7-7-05-08-07-7-|-0-7-7--6--5--3--|
G#|0-7-7-05-08-07-7-|-0-7-7--6--5--3--|
C#|0-7-7-05-08-07-7-|-0-7-7--6--5--3--|

      (3x)               4th time
D#|---------------|-----------------|
A#|---------------|-----------------|
F#|---------------|-----------------|
C#|0-7-7--5--8--7-|-0-7-7--6--5--3--|
G#|0-7-7--5--8--7-|-0-7-7--6--5--3--|
C#|0-7-7--5--8--7-|-0-7-7--6--5--3--|
   don't let ring    let ring

(distorted bass part before verse)
Gb|-----------------------------------|
Db|-----------------------------------|
Ab|-----------------------------------|
Db|-0-7-8-7-0-7-8-7-0-7-8-7-10-10-8-7-|

Gb|-----------------------------------|
Db|-----------------------------------|
Ab|-----------------------------------|
Db|-0-7-8-7-0-7-8-7-0-7-8-7-----------|

[Verse]
     (3x)                 4th time
D#|----------------|-------------------|
A#|----------------|-------------------|
F#|----------------|-------------------|
C#|0-7-8-7---7-8-7-|-0-7-8-7-10-10-8-7-|
G#|0-7-8-7---7-8-7-|-0-7-8-7-10-10-8-7-|
C#|0-7-8-7---7-8-7-|-0-7-8-7-10-10-8-7-|

     (2x)                
D#|----------------|
A#|----------------|
F#|----------------|
C#|0-7-8-7---7-8-7-|
G#|0-7-8-7---7-8-7-|
C#|0-7-8-7---7-8-7-|

D#|----------------------------------------------------------|
A#|----------------------------------------------------------|
F#|----------------------------------------------------------|
C#|7-7---7---7-7-7---7---7-7-7---7---7-7-7---7--7--7-7-7---7-|
G#|7-7---7---7-7-7---7---7-7-7---7---7-7-7---7--7--7-7-7---7-|
C#|7-7---7---7-7-7---7---7-7-7---7---7-7-7---7--7--7-7-7---7-|

D#|-------------------------------------|
A#|-------------------------------------|
F#|-------------------------------------|
C#|7-7-7---7---7-7-7---7---7-7----------|
G#|7-7-7---7---7-7-7---7---7-7----------|
C#|7-7-7---7---7-7-7---7---7-7----------|

[Pre-Chorus]
D#|----------------------------------------------------------------|
A#|----------------------------------------------------------------|
F#|----------------------------------------------------------------|
C#|2-2---0-2-2---0-3-3---0-3-3---0-2-2---0-2-2---0-3-3-3-3-3-3-3-3-|
G#|2-2---0-2-2---0-3-3---0-3-3---0-2-2---0-2-2---0-3-3-3-3-3-3-3-3-|
C#|2-2---0-2-2---0-3-3---0-3-3---0-2-2---0-2-2---0-3-3-3-3-3-3-3-3-|

D#|------------------------------------------|
A#|(3)---------------(9)---------------------|
F#|(2)---------------(8)---------------------|
C#|-0--------3--------6--------5-5-5-5--3--6-|
G#|-0--------3--------6--------5-5-5-5--3--6-|
C#|-0--------3--------6--------5-5-5-5--3--6-|

[Chorus]
      (3x)                 4th time
D#|-----------------|----------------------|
A#|-----------------|----------------------|
F#|-----------------|----------------------|
C#|0-7-7-05-08-07-7-|-0-7-7--6--5--3-0~-//-|
G#|0-7-7-05-08-07-7-|-0-7-7--6--5--3-0~-//-|
C#|0-7-7-05-08-07-7-|-0-7-7--6--5--3-0~-//-|

[Verse 2]
(distorted bass) 
(or guitar on the lowest srtring)
  (3x)                 4th time
Gb|-----------------|-------------------|
Db|-----------------|-------------------|
Ab|-----------------|-------------------|
Db|-0-7-8-7---7-8-7-|-0-7-8-7-10-10-8-7-|

D#|----------------|-------------------|
A#|----------------|-------------------|
F#|----------------|-------------------|
C#|----------------|---------10-10-8-7-|
G#|----------------|---------10-10-8-7-|
C#|----------------|---------10-10-8-7-|

     (3x)                 4th time
D#|----------------|-------------------|
A#|----------------|-------------------|
F#|----------------|-------------------|
C#|0-7-8-7---7-8-7-|-0-7-8-7-10-10-8-7-|
G#|0-7-8-7---7-8-7-|-0-7-8-7-10-10-8-7-|
C#|0-7-8-7---7-8-7-|-0-7-8-7-10-10-8-7-|

D#|----------------------------------------------|
A#|----------------------------------------------|
F#|----------------------------------------------|
C#|0-0---0---0-0-0---0---0-0-0---0---0-0-0---0---|
G#|0-0---0---0-0-0---0---0-0-0---0---0-0-0---0---|
C#|0-0---0---0-0-0---0---0-0-0---0---0-0-0---0---|

D#|-----------------------------------------------------------|
A#|-----------------------------------------------------------|
F#|-----------------------------------------------------------|
C#|0-0-0-1-0---0-1-0-0-0-1-0---0-1-0-0-0-1-0---0-1-0-0--------|
G#|0-0-0-1-0---0-1-0-0-0-1-0---0-1-0-0-0-1-0---0-1-0-0--------|
C#|0-0-0-1-0---0-1-0-0-0-1-0---0-1-0-0-0-1-0---0-1-0-0--------|

[Pre-Chorus]
D#|----------------------------------------------------------------|
A#|----------------------------------------------------------------|
F#|----------------------------------------------------------------|
C#|2-2---0-2-2---0-3-3---0-3-3---0-2-2---0-2-2---0-3-3-3-3-3-3-3-3-|
G#|2-2---0-2-2---0-3-3---0-3-3---0-2-2---0-2-2---0-3-3-3-3-3-3-3-3-|
C#|2-2---0-2-2---0-3-3---0-3-3---0-2-2---0-2-2---0-3-3-3-3-3-3-3-3-|

D#|------------------------------------------|
A#|(3)---------------(9)---------------------|
F#|(2)---------------(8)---------------------|
C#|-0--------3--------6--------5-5-5-5--3--6-|
G#|-0--------3--------6--------5-5-5-5--3--6-|
C#|-0--------3--------6--------5-5-5-5--3--6-|

[Chorus]
      (3x)                 4th time
D#|-----------------|-----------------|
A#|-----------------|-----------------|
F#|-----------------|-----------------|
C#|0-7-7-05-08-07-7-|-0-7-7--6--5--3--|
G#|0-7-7-05-08-07-7-|-0-7-7--6--5--3--|
C#|0-7-7-05-08-07-7-|-0-7-7--6--5--3--|

[Verse 3]
bass
   1st time                         the rest of the times (3x)                               
Gb|-------------|------------------|-------------|------------------|
Db|-------------|------------------|-------------|------------------|
Ab|-------------|------------------|-------------|------------------|
Db|-00-07-05-08-|-00707-05-08--7\\-|-0--07-05-08-|-00707-05-08--7\\-|

   (4x)
D#|----------------|
A#|----------------|
F#|----------------|
C#|0-7-7--5--8-----|
G#|0-7-7--5--8-----|
C#|0-7-7--5--8-----|

5th time bass
Gb|-----------------|
Db|-----------------|
Ab|-----------------|
Db|-0-7-7--5--8--7\-|

   6th time
D#|-----------------|
A#|-----------------|
F#|-----------------|
C#|0-7-7--5--8--7-0-|
G#|0-7-7--5--8--7-0-|
C#|0-7-7--5--8--7-0-|

[Breakdown]
      (3x)                4th time (not sure about the end, cuz it's hard to hear)
D#|-----------------|------------------|
A#|-----------------|------------------|
F#|-----------------|------------------|
C#|00-7-7-005-08-07-|-00-7-7-00--------|
G#|-----------------|------------------|
C#|-----------------|------------------|
                                 "wassup now!"

      (3x)                 4th time
D#|-----------------|-----------------|
A#|-----------------|-----------------|
F#|-----------------|-----------------|
C#|0-7-7-05-08-07-7-|-0-7-7--6--5--3--|
G#|0-7-7-05-08-07-7-|-0-7-7--6--5--3--|
C#|0-7-7-05-08-07-7-|-0-7-7--6--5--3--|

[Outro]
D#|-----------------------------------------|
A#|-----------------------------------------|
F#|-----------------------------------------|
C#|0-7-7--6--5--3-6--5--3-6--5--3-6--5--3-0-|
G#|0-7-7--6--5--3-6--5--3-6--5--3-6--5--3-0-|
C#|0-7-7--6--5--3-6--5--3-6--5--3-6--5--3-0-|


************************************

| (n)  Ghost note
| /    Slide up
| ~    Vibrato
| \    Slide down  

************************************
Suggest correction
comments
print report bad tab
12 comments total. Showing first comments.
0 reply
zoastev 253 Oct 02, 2006 05:29 AM

nice tab :) yea they do cut it short at the intro
the iTunes version has the full intro on it
the real only mistake u made was the tunning its not drop D its C# G# C# F# A# D# great tab :) keep up the good work

-1 reply
Logan_B 10 Jan 06, 2007 01:38 PM

by the way, this tab is not even close, look at the other tab.

0 reply
prikaze 135 Jan 06, 2007 02:29 PM

quote:"[01/06/2007 - 06:38 pm] by Logan_B : |
by the way, this tab is not even close, look at the other tab. "

hahhaha :D :D
i bet u wrote the other tab, i could also say to the other tab: it aint even close, look at this one.
if you have a slight musical hearing, you'll relaize which one is closer :D :D
peace

guest
You may want to rate the tab now too:
select rating
Wanna post a correction for this tab? Suggest correction