Oops, an error
Loading. Please wait.

Good Times I Get High bass

58 views 1 this week
1 commentread comment
1 2 3 4 5
3 more votes to show rating
add to favorites
×
Save as Personal and add changes to this tab that will be seen only by you. Learn more ›
×
You can save this tab as Personal to edit and correct it or add notes. All changes will be seen only by you. Learn more »
launch autoscroll
font size
0
reset
guitar tuner
edit
Autoscroll
slow
fast
+/-
esc
set tempo
stop
Author
Difficulty
About this tab version
No one else bothered to tab it? Was this info helpful? Yes No
Styles P – Good Times (I Get High)                                    Most of the song is a sample of  
                                                                          Freda Payne- I Get High  
[Intro]                         (Listen for timing,very fast)

 “I get high, I get high…” 
G|------------------------------------------------------------------------------11--9-------------------|
D|--9--9----------7--9--9--11--11------------8--8--9--9---------7--9--9--11--11---------11--11----------|
A|----------9--9--------------------9--9--11--------------9--9----------------------------------11------|
E|---------------------------------------------------------------------------------------------------9--|

G|----------------------------------------------------------------------------------------9--9--------|
D|-----------------7--9--9--11--11--------------8--8--9--9----------7--9--9------------9--------------|
A|----------9--9-----------------------9--9--11-----------------9--9-------------7--7-----------7--8--|
E|--7--7----------------------------------------------------------------------------------------------|

[Chorus]   “I get HIGH, HIGH, HIGH…”
G|----------------------------------------------------------------------------------|
D|----------------------------------------------------------------------------------|
A|--7--8--9-----9----------------------------7--8--9-----9--------------------------|
E|------------------9----9--10----10--9---------------------9----9--10----10—9------|
“High-igh-igh-igh”
G|--------------------------------|
D|--------------------------------|                                                          
A|-----7-------7--8--9--------9---|                               Intro   Chorus x2   Verse x4
E|--7-------7---------------9-----|                                 Chrus x2   Verse x4   Chrs x4          
                                                                                             
[Verse]   Same throughout
G|------------|------------|-------------|----------------|
D|------------|------------|-------------|----------------|
A|--9---------|---9--------|--9----------|-9--------------|
E|------9-----|------------|-----9-------|------10--10----|

Rate, Comment, You know the drill.

I made this tab condensed for phone users. If you don't like it, I Hate You.
 Enjoi

            
            
Suggest correction
Creating personal tab
Creating personal tab
You can edit any tab online and save it as your Personal.

You can edit, replace or remove any tab part or add personal notes – all changes will be seen only by you.

Personal tabs can be accessed anytime from any device, even offline.
Learn more »
Give kudos to tab author, rate the tab!
1 2 3 4 5
comments
print report bad tab
1 comment total.
0 reply
MitchellMA 188 Dec 13, 2016 06:32 PM

I hope y'all enjoy it!

guest
You may want to rate the tab now too:
select rating
Wanna post a correction for this tab? Suggest correction