Oops, an error
Loading. Please wait.

Best Of Times Bass Tab

by Styx
3,064 views 12 this week
no commentswrite comment
1 2 3 4 5
excellent!
x 3
add to favorites
launch autoscroll
font size
0
reset
guitar tuner
Tab Pro tools
  • play this tab
  • loop segment
  • change instrument
  • show fretboard
  • metronome
Autoscroll
slow
fast
+/-
esc
set tempo
stop
  Song: THE BEST OF TIMES (bass tab)
  Artist: STYX
  Tabbed by: FER MADRID
  STANDARD TUNING
  
G|-----------------|----------------|----------------|-----------------|
D|*-------R--------|-------E--------|-------S--------|--------T-------*|
A|*----------------|----------------|----------------|----------------*|
E|-----------------|----------------|----------------|-----------------|
    1   2   3   4    1   2   3   4    1   2   3   4    1   2   3   4  

...tonight             3x)
G|-----14--14--14--------|-----14----------|
D|*-----------------14--*|-----------------|
A|*-12------------------*|-12------8---10--|
E|-----------------------|-----------------|
    1   2   3   4   +      1   2   3   4     

G|----------------|----------------|----------------|----------------|
D|----------------|----------------|----------------|----------------|
A|----------------|-5--------------|----------------|-3-------3---2--|
E|-5--------------|----------------|-3-------1------|----------------|
   1   2   3   4    1   2   3   4    1   2   3   4    1   2   3   4  

G|----------------|----------------|----------------|----------------|
D|---------3------|---------3------|---------3------|---------2------|
A|----------------|----------------|----------------|-0--------------|
E|-1--------------|-1--------------|-1--------------|----------------|
   1   2   3   4    1   2   3   4    1   2   3   4    1   2   3   4  

G|------------|------------|-----------------|---------------------|
D|------------|------------|-----------------|---------------------|
A|------------|------------|-----------------|-5---5---------------|
E|-5-----4----|-3-----2----|-1-1-1-1-1-1-1-1-|---------3-------3-5-|
   1  2  3  4   1  2  3  4   1 + 2 + 3 + 4 +   1  +  2 + 3   4 +  

  CHORUS
          G|------------------|-------------------|
          D|------------------|-------------------|
          A|--3-3-3-3-3-3-3-3-|-3-3-3-3-3-3-3-----|
          E|------------------|---------------3-5-|
              1   2   3   4     1   2   3   4 +  
      
          G|-----------------|--------------------|
          D|-----------------|--------------------|
          A|-3-3-3-3-3-3-3-3-|--------------------|
          E|-----------------|-5-5-5-3-3-3-3--3-5-|
             1   2   3   4     1   2   3   4  +    

          G|------------------|-------------------|
          D|------------------|-------------------|
          A|--3-3-3-3-3-3-3-3-|-3-3-3-3-3-3-3-----|
          E|------------------|---------------3-5-|
              1   2   3   4     1   2   3   4 +  

          G|-----------------|-----------------|
          D|-----------------|-----------------|
          A|-3-3-3-3-3-3-3-3-|-----------------|
          E|-----------------|-5-5-5-3-3-3-3-3-|
             1   2   3   4     1   2   3   4      

"Our memories..."
G|-------------|-------------|-------------------|--------------|
D|-3-----2-----|-------------|2---------------2--|4--3-----2----|
A|-------------|-5-----------|4-------2-3-4-5----|4-------------|
E|-------------|-------3--3--|--2-3-5------------|--------------|
   1  2  3  4    1  2  3  4     1       2            1  2  3  4  

G|-------------|----------------|
D|-------------|----------------|
A|-5-----------|-5--------------|
E|-------1--0--|-------3----3-5-|
   1  2  3  4    1  2  3  4 +       

INTERLUDE
"These are the best..."
G|-------------------------|-------------------------| 
D|-------------------------|-------------------------|
A|-3--33-3--33-3--33-3--33-|-3--33-3--33-3--33-3-----|
E|-------------------------|----------------------35-|
   1  +  2  +  3  +  4       1  +  2  +  3  +  4  +

G|-------------------------|------------------|
D|-------------------------|------------------|
A|-3--33-3--33-3--33-x-----|------------------|
E|----------------------1--|---1-1-1-0-0-0-0--|
   1  +  2  +  3  +  4  +    1 + 2 + 3 + 4 + 


GUITAR SOLO  
G|------------------|------------------|-------------|-------------|
D|*-----------------|-----------------*|-3-----2-----|-------------|
A|*-----------------|-7-7-7-7-7-7-7-7-*|-------------|-5-----------|
E|--5-5-5-5-5-5-5-5-|------------------|-------------|-------3-----|
    1   2   3   4     1   2   3   4      1  2  3  4    1  2  3  4  

G|-------------|-------------|-------------|---------------------|
D|-3-----2-----|-------------|-------------|---------------------|
A|-------------|-5-----------|-5-----------|-0----------------12-|
E|-------------|-------1--0--|-------3-----|---------------14----|
   1  2  3  4    1  2  3  4    1  2  3  4    1   2   3   4 + 

G|-14------17-16-12-|-14------14-12-------|----------------------|
D|------------------|---------------14-12-|----------------------|
A|------------------|---------------------|-12----12h14p12--8-10-|
E|------------------|---------------------|----------------------|
   1  2  3 +  4  +    1  2  3 +  4  +       1   2           3 4   
 
"The headlines read..."
G|----------------|----------------|----------------|----------------|
D|----------------|----------------|----------------|----------------|
A|----------------|-5--------------|----------------|-3-------3---2--|
E|-5--------------|----------------|-3-------1------|----------------|
   1   2   3   4    1   2   3   4    1   2   3   4    1   2   3   4  

G|----------------|----------------|----------------|----------------|
D|---------3------|---------3------|---------3------|---------2------|
A|----------------|----------------|----------------|-0--------------|
E|-1--------------|-1--------------|-1--------------|----------------|
   1   2   3   4    1   2   3   4    1   2   3   4    1   2   3   4  

"But i know..."
G|-----------------|-----------------|---------|---------------------|
D|-----------------|-----------------|---------|---------------------|
A|-----------------|-----------------|---------|-5---5---------------|
E|-5-5-5-5-4-4-4-4-|-3-3-3-3-2-2-2-2-|-1-1-1-1-|---------3-------3-5-|
   1   2   3   4     1   2   3   4     1 2 3 4   1  +  2 + 3   4 + 

FINAL CHORUS

          G|------------------|--------------------|
          D|*-----------------|--------------------|
          A|*-3-3-3-3-3-3-3-3-|-3-3-3-3-3-3-3------|
          E|------------------|----------------3-5-|
              1   2   3   4     1   2   3   4  +  
      
          G|-----------------|---------------------|
          D|-----------------|--------------------*|
          A|-3-3-3-3-3-3-3-3-|--------------------*|
          E|-----------------|-5-5-5-3-3-3-3--3-5--|
             1   2   3   4     1   2   3   4  +  

                    (REPEAT AND FADE OUT)  


ANY COMMENTS AT: mr_roboto21012@hotmail.com
comments
We did not receive enough feedback on this tab! Please rate:
print report bad tab
1 2 3 4 5
I want to post or [tab]
guest
You may want to rate the tab now too:
select rating
Please do not post tabs as comments. Select "correction" instead!