Oops, an error
Loading. Please wait.

Blue Collar Man Long Nights Bass Tab

version 2
version 2

Whole song

Interactive

by Styx
900 views 1 this week
no commentswrite comment
1 2 3 4 5
3 more votes to show rating
add to favorites
launch autoscroll
font size
0
reset
guitar tuner
Autoscroll
slow
fast
+/-
esc
set tempo
stop
Help us to improve Ultimate-Guitar.com Take our survey!
×
Author
Difficulty
intermediate
--------------------------------------------------------------------------
                             BLUE COLLAR MAN - Styx
--------------------------------------------------------------------------

Tabbed By : teh-funnay

Tuning: EADG


 Intro: Come in after "Ooh"
G|-------------------------------------------------------------------|
D|-------------------------------------------------------0-3-2-0-----|
A|-5--5--5--5--5--5--5--5--5--5--5--5--5--5--5--5--0-1-3---------3-5-|  
E|-------------------------------------------------------------------|

 Verse 1: "Give me a job..."
G|----------------------------------------------------|
D|----------------------------------------------------|
A|-5---3-5---------------1/3-3----3-3---3-5--5------3-|
E|-----------5-3---1-3-1-------------------------5----|

G|----------------------------------------------------|
D|----------------------------------------------------|
A|-5---3-5---------------1h3-3--3--3-2-1--0-----------|
E|-----------5-3---1-3-1---------------------3--1--0--|

G|----------------------------------------------------|
D|----------------------------------------------------|
A|-5---3-5---------------1--3----3-3---3-5--5-------3-|
E|-----------5-3---1-3-1-------------------------5----|

G|----------------------------------------------------|
D|----------------------------------------------------|
A|-5---3-5---------------1--3--3--3-2-1--0------------|
E|-----------5-3---1-3-1---------------------3--1--0--|

 Chorus: "Long nights..."
G|----------------------------------------------------|
D|----------------------------------------------------|
A|-5--5--5--5--5--5--5--5--1-1-1-3--3-0-3--5--5-------|
E|----------------------------------------------------|

G|----------------------------------------------------||--------------------|
D|-------------------------------0-3-2-0--------------||-------0-3-2-0------|  
A|-5--5--5--5--5--5--5--5--0-1-3---------3-5----------||-0-1-3---------3-5--|    
E|----------------------------------------------------||--------------------|

 Verse 2: "Make me an..."
G|----------------------------------------------------|
D|----------------------------------------------------|
A|-5---3-5---------------1/3-3----3-3---3-5--5------3-|
E|-----------5-3---1-3-1-------------------------5----|

G|----------------------------------------------------|
D|----------------------------------------------------|
A|-5---3-5---------------1h3-3--3--3-2-1--0-----------|
E|-----------5-3---1-3-1---------------------3--1--0--|


 Chorus: "Long nights..."
G|----------------------------------------------------|
D|----------------------------------------------------|
A|-5--5--5--5--5--5--5--5--1-1-1-3--3-0-3--5--5-------|
E|----------------------------------------------------|

G|-------------------------------------------|
D|-------------------------------0-3-2-0-----|
A|-5--5--5--5--5--5--5--5--0-1-3---------3-5-|  
E|-------------------------------------------|

 Pre-Verse: "Paradise..."
G|-------------------------------------------------------------------------|
D|-------------------------------------------------------------------------|
A|-5--5--5--5--5--5--5--5--3--3--3--3--3--3--3--3--------------------------|
E|-------------------------------------------------6--6--6--6--6--6--6--6--|

G|-------------------------------------------------------------------------|
D|-------------------5---7-5-8-7-------------------------------------------|
A|-5--5--5-5-7-5-8-7---8---------5--5--5--5--5--5--5--5--3--3--3--3--3--3--|
E|-------------------------------------------------------------------------|

G|-----------------------------------------------------|
D|-------------------------------7---------------(5)/7-|
A|-3--3----------------------------0-0-0-0-0-0-0-------|
E|-------6--6--6--6--6--6--6--6------------------------|

 Guitar Solo: Play Verse 1

 Chorus: "Long nights..."
G|----------------------------------------------------|
D|----------------------------------------------------|
A|-5--5--5--5--5--5--5--5--1-1-1-3--3-0-3--5--5-------|
E|----------------------------------------------------|

G|----------------------------------------------------|
D|-------------------------------0-3-2-0--------------|  
A|-5--5--5--5--5--5--5--5--0-1-3---------3-1----------|   
E|----------------------------------------------------|

 Bridge: (no Bass in first part)
G|----------------------------------------------------|
D|----------------------------------------------------|
A|----------------------------------------------------|
E|----------------------------------------------------|

G|-15--15--15--15--15--15--15-------------------------|
D|----------------------------------------------------|
A|----------------------------------------------1/3---|
E|-----------------------------/6--6--6--6--6-------5-|

 Chorus: "Long nights..."
G|----------------------------------------------------|
D|----------------------------------------------------|
A|-5--5--5--5--5--5--5--5--1-1-1-3--3-0-3--5--5-------|
E|----------------------------------------------------|

G|-------------------------------------------------------------------------|
D|-------------------------------0-3-2-0--------0-3-2-0--------0-3-2-0-----|  
A|-5--5--5--5--5--5--5--5--0-1-3---------3-1--3---------3-1--3---------3-5-|    
E|-------------------------------------------------------------------------|

 Outtro: (no Bass in first part)
G|------------------------------------------------------------------|
D|------------------------------------------------------------------|
A|------------------------------------------------------------------|
E|------------------------------------------------------------------|

G|------------------------------------------------------------------|
D|-----------3---------------5--3-------------3---------------5--3--|
A|-5-5-5--5--------5-5-5--5---------5-5-5--5--------5-5-5--5--------|
E|------------------------------------------------------------------|

G|------------------------------------------------------------------|
D|-------0-3-2-0------------------0--3--2--0------------------------|
A|-0-1-3---------3-5--------1--3--------------3--5------------------|
E|------------------------------------------------------------------|

| /  slide up
| h  hammer-on
===========================================================================
Suggest correction
Give kudos to tab author, rate the tab!
1 2 3 4 5
comments
print report bad tab
guest
You may want to rate the tab now too:
select rating
Wanna post a correction for this tab? Suggest correction