Oops, an error
Loading. Please wait.

Borrowed Time Bass Tab

by Styx
586 views 1 this week
no commentswrite comment
1 2 3 4 5
please rate
add to favorites
launch autoscroll
font size
0
reset
guitar tuner
Autoscroll
slow
fast
+/-
esc
set tempo
stop
Help us to improve Ultimate-Guitar.com Take our survey!
×
Author
standard tuning

:08 x2
G|----------13-----------11----------15----------18-|
D|--------------------------------------------------|
A|----6--4----------6--4--------6--4--------6--4----|
E|-4------------4-----------4-----------4-----------|

:39
G|-----------------------------------------------|
D|-----------------------------------------------|
A|-----------------------------------------------|
E|-4----4--4--4----4--4--4----4--4--4----4--4--4-|

1:02
G|----------------------------------------------------------------|
D|----------------------------------------------------------------|
A|----------------------------------------------------------------|
E|-44444444-44444444-44444444-44444444-22222222-22222222-22222222-|

1:13
G|----------------------------------------------------------------------------------|
D|----------------------------------------------------------------------------------|
A|----------------------------------------------------------------------------------|
E|-44444444-44444444-44444444-44444444-22222222-22222222-22222222-11111111-11111111-|

1:26
G|---------------------------------------------------------------|
D|---------------------------------------------------------------|
A|---------------------------------------------------------------|
E|-4--4-4--44444444-44444444-44444444-44444444-22222222-22222222-|

1:38
G|---------------------------------------------------------------------------------|
D|---------------------------------------------------------------------------------|
A|-------------------------------------------------------------------------3-4-6-8-|
E|-44444444-44444444-44444444-44444444-22222222-22222222-11111111-11-2-4-6---------|

1:51
G|-------------------------------------------------------------------|
D|-------------------------------------------------------------------|
A|-------------------------6--8---------------------------6--8-------|
E|-44--444--444--444--11----------44--444--444--444--11----------6-6-|

2:05
G|-------------------------------------------------------|
D|-------------------------------------------------------|
A|-------------------------------------------------------|
E|-44444444-44444444-44444444-44444444-22222222-22222222-|

2:16
G|---------------------------------------------------------------------------------|
D|---------------------------------------------------------------------------------|
A|-------------------------------------------------------------------------3-4-6-8-|
E|-44444444-44444444-44444444-44444444-22222222-22222222-11111111-11-2-4-6---------|

2:30
G|--------------------------------------------------------------------------------|
D|--------------------------------------------------------------------------------|
A|--------------------------------------------------------------------------------|
E|-4-4-4---4--4--4--4---4-4-4---4--4--4--4---4-4-4---4--4--4--4---4-4-4---4--4--4-|

2:46 
G|---------------------------------------------------------------|
D|---------------------------------------------------------------|
A|-0000000-12-0000000-12-0000000-12-0000000-12-------------------|
E|---------------------------------------------33333333-33333333-|

2:57
G|-----------------------------------------------------------------------------------------|
D|-----------------------------------------------------------------------------------------|
A|-0000000-12-0000000-12-0000000-12-0000000-12-------------------------------------3-4-6-8-|
E|---------------------------------------------33333333-33333333-22222222-22-2-4-6---------|

3:11
G|---------------------------------------------------------------|
D|---------------------------------------------------------------|
A|-0000000-12-0000000-12-0000000-12-0000000-12-------------------|
E|---------------------------------------------33333333-33333333-|

3:21
G|-----------------------------------------------------------------------------------------|
D|-----------------------------------------------------------------------------------------|
A|-0000000-12-0000000-12-0000000-12-0000000-12-------------------------------------3-4-6-8-|
E|---------------------------------------------33333333-33333333-22222222-22-2-4-6---------|

3:35
G|---------------------------------------------------|
D|--------------------------7--7--9------------------|
A|-----7---5---4---7--7--7---------------------------|
E|-2--------------------------------5~----0--2--0--2-|

3:52
G|---------------------------------------------------|
D|---------------------------------------------------|
A|-------------------------7--9--77------------------|
E|-55--555--555--555--22-------------5-5-5---5--5--5-|

4:02 repeat until end
G|-----------------|
D|-----------------|
A|-----------------|
E|-5-5-5---5--5--5-|
Suggest correction
Give kudos to tab author, rate the tab!
1 2 3 4 5
comments
print report bad tab
guest
You may want to rate the tab now too:
select rating
Please do not post tabs as comments. Select "correction" instead!