Oops, an error
Loading. Please wait.

Brave New World Bass Tab

by Styx
88 views 1 this week
no commentswrite comment
1 2 3 4 5
3 more votes to show rating
add to favorites
launch autoscroll
font size
0
reset
guitar tuner
Autoscroll
slow
fast
+/-
esc
set tempo
stop
Help us to improve Ultimate-Guitar.com Take our survey!
×
Author
standard tuning

:00 
G|----------------------------------------------------------------------------|
D|----------------------------------------------------------------------------|
A|-2~------2~------2~------2~------2~------2~------2~------2~------2~------2~-|
E|----------------------------------------------------------------------------|

:39
G|----------------|
D|----------------|
A|-2~----2~----2~-|
E|----------------|

:45
G|---------------------------------------------------------------------------------|
D|---------------------------------------------------------------------------------|
A|-2--2----22--2--2---22--2-2--2-----------22--2-2--2--2--2----22--2-2--2--2-------|
E|------2-----------2-------------2--0-2-3-------------------2---------------0-2-3-|

1:02
G|-------------------------------------------------------------------------|
D|-------------------------------------------------------------------------|
A|----------------------2--2-2---22--2-------------------------------------|
E|-77--99--1010--1212----------2-------0-2-3--77--99--1010-10/15--15`--15`-|

1:15 x3
G|--------------------------------------------------------------|
D|---------------------------------------------------5-----5----|
A|-7-7-7-7-7-7-7-7--------------------------------5-----5-----5-|
E|-----------------7777-7-7-7-7-7-7-7-7-3-3-3-3-3---------------|

1:39
G|---------------------------------------------------------------------------------|
D|---------------------------------------------------------------------------------|
A|-2--2----22--2--2---22--2-2--2-----------22--2-2--2--2--2----22--2-2--2--2-------|
E|------2-----------2-------------2--0-2-3-------------------2---------------0-2-3-|

1:56
G|-------------------------------------------------------------------------|
D|-------------------------------------------------------------------------|
A|-2-2--4-4--5-5--7-7--2--2-2---22--2---------2-2--4-4--5-5--5/10-10-10-10-|
E|----------------------------2--------0-2-3-------------------------------|

2:08 x3
G|--------------------------------------------------------------|
D|---------------------------------------------------5-----5----|
A|-7-7-7-7-7-7-7-7--------------------------------5-----5-----5-|
E|-----------------7777-7-7-7-7-7-7-7-7-3-3-3-3-3---------------|

2:33
G|-----------------------------------------------------------------------------------------|
D|-----------------------------------------------------------------------------------------|
A|------3----0----2-----0-0-0-0-0-0-0-0--0-0-0-0-0-0-0-0-----------------------------------|
E|-0------------------------------------------------------3-3-3-3-3-3-3-3--3-3-3-3-3-3-3-3-|

2:58
G|--------------------------------------------------------------------------|
D|--------------------------------------------------------------------------|
A|--------------------------------------------------------------------------|
E|-2-2-2-2-2-2-2-2--2-2-2-2-2-2-2-2--0--2-2-2-2-2-2-2-2--2/1414141414141414-|

3:07
G|-------------------------------------------------------------------------|
D|-------------------------------------------------------------------------|
A|-2-2--4-4--5-5--7-7--2--2-2---22--2---------2-2--4-4--5-5--5/10-10-10-10-|
E|----------------------------2--------0-2-3-------------------------------|

3:19 x2
G|--------------------------------------------------------------|
D|---------------------------------------------------5-----5----|
A|-7-7-7-7-7-7-7-7--------------------------------5-----5-----5-|
E|-----------------7777-7-7-7-7-7-7-7-7-3-3-3-3-3---------------|

3:36
G|----------------------------------------------------------------------|
D|-------------------------------------------------------5-----5--------|
A|-7-7-7-7-7-7-7-7------------------------------------5-----5-----5--2~-|
E|-----------------7777-7-7-7-7-7-7-7-7-0-2-3-3-3-3-3-------------------|

4:05
G|----------------------------------------------------------------------------|
D|----------------------------------------------------------------------------|
A|-2~------2~------2~------2~------2~------2~------2~------2~------2~------2~-|
E|----------------------------------------------------------------------------|

4:42
G|-----------------------------|
D|-----------------------------|
A|-2/9~---9--7--5--7--5--4--2~-|
E|-----------------------------|

4:47
G|--------------------------------------------|
D|--------------------------------------------|
A|-2~------2~------2~------2~------2~------2~-|
E|--------------------------------------------|
Suggest correction
Give kudos to tab author, rate the tab!
1 2 3 4 5
comments
print report bad tab
guest
You may want to rate the tab now too:
select rating
Wanna post a correction for this tab? Suggest correction