Oops, an error
Loading. Please wait.

Castle Walls Bass Tab

by Styx
1,772 views 3 this week
no commentswrite comment
1 2 3 4 5
please rate
add to favorites
launch autoscroll
font size
0
reset
guitar tuner
Autoscroll
slow
fast
+/-
esc
set tempo
stop
Help us to improve Ultimate-Guitar.com Take our survey!
×
Author
standard tuning

:00
G|---------------------------------------------------------------|
D|---------------------------------------------------------------|
A|-3--3--3--3--3--3--3--3--3--3--3--3--3--3--3--3--3-------------| 
E|----------------------------------------------------4--4--4--4-| 

:19
G|------------------------------------------------------------|
D|------------------------------------------------------------|
A|-3--3--3--3--------------3--3--3--3-------------------------| 
E|-------------4--4--4--4--------------4--4--4--4--6--6--6--6-| 

:38
G|----------------------------------------------------------------------------------------|
D|----------------------------------------------------------------------------------------|
A|-3--3--3--3--------------3--3--3--3----------------3--3--3--3---------------------------| 
E|-------------4--4--4--4--------------4--4--4--4-6--------------4--4--4--4--6--6--6--6-4-| 

1:05
G|---------------------------------------------------------------------------------------------|
D|---------------------------------------------------------------------------------------------|
A|-3--3--3--3-1----------------3--3--3--3----------------3--3--3--3----------------------------| 
E|---------------4--4--4--4-6--------------4--4--4--4-6--------------4--4--4--4--6--6--6--6--4-| 

1:31
G|---------------------------------------------------------------------------------------------|
D|--------------------------------------------------------1------------------------------------|
A|-3--3--3--3--3-------------------------------3--33--33----1--3--3--33--3--3------------------| 
E|--------------4--4--44--4-3-1--6--6--66--66--------------------------------4--4--44--4-3-1-6-| 

1:46
G|------------------------------------------------------------------------------------------|
D|-----5-----------5-----------5-----------5-----------5-----------5------------------------|
A|-3-6-----3---3-6-----3---3-6-----3---3-6-----3---3-6-----3---3-6-----8-10-6-8-11-10-3~----| 
E|------------------------------------------------------------------------------------------| 

2:47
G|--------------------------------------------------------------|
D|---------------------------------------------8~----9--9--9--9-|
A|-3~----6~----3~----11~----8~----3~----11~---------------------| 
E|--------------------------------------------------------------| 

3:48
G|-----------------------------------------------------------------------------|
D|-----------------------------------------------------------------------------|
A|-3--3--3--3--3--3--3--3--3--3--3--3----------------3--3--3--3--3-------------| 
E|-------------------------------------4--4--4--4-6---------------4--4--4--4-6-| 

4:11
G|------------------------------------------------------------------------------------------|
D|------------------------------------------------------------------------------------------|
A|-3--3--3--3--3------------11-1--1--1--3--3-1-3--3-1-3--3-1-3--1---------------------------| 
E|--------------4--4--4--4---------------------------------------4--4-3-4--4-3-4--4-3-4-6-4-|

4:30
G|---------------------------------------------------------------------------------|
D|---------------------------------------------------------------------------------|
A|-3--3-1-3--3-1-3--3-1-3--1-----------------------------3--3-1-3--3-1-3--3-1-3--1-| 
E|---------------------------4--4-3-4--4-3-4--4-3-4-6-4----------------------------|

4:41
G|---------------------------------------------------------------------------|
D|---------------------------------------------------------------------------|
A|-------------------------------------------------------------3--33--33--33-| 
E|-4--4-3-4--4-3-4--4-3-4-6-4-6--6--6-4-6--6-4-6--6-4-6-8-6-4----------------|

4:51
G|-----------------------------------------------------------------------------------|
D|---------------------------------------------1-------------------------------------|
A|-3--------------------------------33--33--3----1--3--3--33--3--3-------------------| 
E|--4--44--44--4-3-1--6--6--66--66--------------------------------4--44--44--4-3-1-6-|

5:14
G|---------------------------------------------------------------------|
D|-----5--------5--------5--------5-------5-------5--------------------|
A|-3-6------3-6------3-6------3-6-----3-6-----3-6-----8-10-6-8-11-10-3-| 
E|---------------------------------------------------------------------|
Suggest correction
What's this?
You can suggest a correction to this tab. Community and Mods will review your correction and vote to approve or reject it.
comments
We did not receive enough feedback on this tab! Please rate:
print report bad tab
1 2 3 4 5
guest
You may want to rate the tab now too:
select rating
Please do not post tabs as comments. Select "correction" instead!