Oops, an error
Loading. Please wait.

Cold War Bass Tab

by Styx
214 views 1 this week
no commentswrite comment
1 2 3 4 5
please rate
add to favorites
launch autoscroll
font size
0
reset
guitar tuner
Autoscroll
slow
fast
+/-
esc
set tempo
stop
Help us to improve Ultimate-Guitar.com Take our survey!
×
Contributor
guy7bmwm5 1,371
standard tuning

:00
G|----------------------------------------|  
D|----0-------------------------------3-0-|  
A|-8-----3-5-5-3-5--3-5-5-3-5-3-0-3-0-----| 
E|----------------------------------------|

:07
G|----------------------------------------------------------------------|  
D|----0-------------------------------3-0-------------------------------|  
A|-8-----3-5-5-3-5--3-5-5-3-5-3-0-3-0-----------------------------------| 
E|-----------------------------------------1-1--1--1--1-1--1--1-1--5--3-|

:22
G|----------------------------------------------------------------|  
D|----------------------------------------------------------------|  
A|---5--3----5--3----5--3----5--3----5----------5--3----5--3----5-| 
E|-5-------5-------5-------5-------5----------5-------5-------5---|

:39
G|-----------------------------------------------------------------------------------|  
D|-----------------------------------------------------------------------------------|  
A|---5--3----5--3----555---333---555---333--5--3----5--3----555----333----555----333-| 
E|-5-------5-------5-----5-----5-----5------------5-------5------5------5------5-----|

:53
G|--------------------------------------------------------------------------------------|  
D|--------------------------------------------------------------------------------------|  
A|-5--3----5--3--------------------------------------------5--3----5--3----5--3----5--3-| 
E|-------5-------333--111--333--111--333--111--333--111--5-------5-------5--------5-----|

1:10
G|------------------------------------------------------------------------------------|  
D|------------------------------------------------------------------------------------|  
A|---5--------5--3----5--3----5--------5--3----5--3----555----333----555----333--5--3-| 
E|-5--------5-------5-------5--------5-------5-------5------5------5------5-----------|

1:28
G|--------------------------------------------------------------------------------------------|  
D|--------------------------------------------------------------------------------------------|  
A|---5--3----555----333----555----333----5--3----5--3-----------------------------------------| 
E|-5-------5------5------5------5------5-------5-------333--111--333--111--333--111--333--111-|

1:44
G|--------------------------------------------------------------------------------|  
D|--------------------------------------------0-------------------------------3-0-|  
A|-----------------------------------------8-----3-5-5-3-5--3-5-5-3-5-3-0-3-0-----| 
E|-555--333--555--333--555--333--555--333-----------------------------------------|

1:58
G|----------------------------------------------------------------------|  
D|----0-------------------------------3-0-------------------------------|  
A|-8-----3-5-5-3-5--3-5-5-3-5-3-0-3-0-----------------------------------| 
E|-----------------------------------------1-1--1--1--1-1--1--1-1--5--3-|

2:13
G|--------------------------------------------------------------------------------|  
D|--------------------------------------------------------------------------------|  
A|---5--5----5--5----5--5----5--5--------------------5--5----5--5----5--5----5--5-| 
E|-5-------5-------5-------5-------1-3--3--1-3--3--5-------5-------5-------5------|

2:30
G|---------------------------------------------------------------------------------------------|  
D|---------------------------------------------------------------------------------------------|  
A|-----------------------------------5--5----5-3-----------------------------------------------| 
E|-1-3--3--1-3--3--0-1--1--0-1--1--5-------5-----5-3-1--333--111--333--111--333--111--333--111-|

2:47
G|--------------------------------------------------------------------------------|  
D|--------------------------------------------0-------------------------------3-0-|  
A|-----------------------------------------8-----3-5-5-3-5--3-5-5-3-5-3-0-3-0-----| 
E|-555--333--555--333--555--333--555--333-----------------------------------------|

3:01 x2
G|----------------------------------------|  
D|----0-------------------------------3-0-|  
A|-8-----3-5-5-3-5--3-5-5-3-5-3-0-3-0-----| 
E|----------------------------------------|

3:14
G|-----------------------------------------------------------------------------|
D|-----------------------------------------------------------------------------|
A|-------------------------------5--5----5--5----5--5----5--5----5--5-----5--5-|
E|-1--1--1--1-1--1--1-3-5-3----5-------5-------5-------5-------5-------5-------|

3:33 repeat until ending
G|--------|
D|--------|
A|---5--5-|
E|-5------|
comments
We did not receive enough feedback on this tab! Please rate:
print report bad tab
1 2 3 4 5
I want to post or [tab]
guest
You may want to rate the tab now too:
select rating
Please do not post tabs as comments. Select "correction" instead!