Oops, an error
Loading. Please wait.

Come Sail Away Bass Tab

version 2
version 2

Whole song

Interactive

by Styx
4,296 views 1 this week
1 commentread comment
1 2 3 4 5
accurate
x 3
add to favorites
launch autoscroll
font size
0
reset
guitar tuner
Autoscroll
slow
fast
+/-
esc
set tempo
stop
Help us to improve Ultimate-Guitar.com Take our survey!
×
Come Sail Away
Styx

4/4 time, standard tuning.

(No bass on intro)

(I'm sailing away...)
||---0------0----|-----5----------|-----2------2--|-----0----------|
||---------------|---2---2--------|---------------|---0---0---0----|
||-3---3--2---2--|-0-------0--0---|---3------3----|----------------|
||---------------|--------------3-|-1------1------|-3-------3---3--|

(I've got to be free...)
|---0------0----|-----5----------|-----2------2--|-----0----------|
|---------------|---2---2--------|---------------|---0---0---0----|
|-3---3--2---2--|-0-------0--0---|---3------3----|----------------|
|---------------|--------------3-|-1------1------|-3-------3---3--|

(On board I'm the captain...)
|-----2-------2--|-----0-------4--|-----2-------2--|-----0-------4--|
|---2---2---2----|---0---0---0----|---2---2---2----|---0---0---0----|
|-0-------0------|----------------|-0-------0------|----------------|
|----------------|-3-------3------|----------------|-3-------3------|

(I'll try...)
|---0------0----|-----5----------|-----2------0--|---0-5-0---2-7-2-|
|---------------|---2---2--------|---------------|---------0-------|
|-3---3--2---2--|-0-------0--0---|---3------3----|-3---------------|
|---------------|--------------3-|-1------1------|-----------------|

|---4-9-4---2-7-2-|---0-9-------4--|---0-------0----|-----5-----------|
|-2-------0-------|-----------3----|----------------|---2---2---2-----|
|-----------------|-3-----3--------|-3---3-3-2---2--|-0-------0---0---|
|-----------------|---------3------|----------------|---------------3-|

(Reflections in the waves...)
|-----2------2--|-----4-----------|---0-------0----|-----5-----------|
|---------------|---0---0---0-----|----------------|---2---2---2-----|
|---3------3----|-----------------|-3---3-3-2---2--|-0-------0---0---|
|-1------1------|-3-------3---3-3-|----------------|---------------3-|

(I think of childhood friends...)
|-----2------2--|-----0-----------|-----2-----------|-----0-----------|
|---------------|---0---0---0-----|---2---2---2-----|---0---0---0-----|
|---3------3----|-----------------|-0-------0---0-0-|-----------------|
|-1------1------|-3-------3---3-3-|-----------------|-3-------3---3-3-|

(But somehow we missed out...)
|-----2-----------|-----0-------4--|---0-------0----|-----5-----------|
|---2---2---2-----|---0---0---0----|----------------|---2---2---2-----|
|-0-------0---0-0-|-0--------------|-3---3-3-2---2--|-0-------0---0---|
|-----------------|---------3------|----------------|---------------3-|

(To carry on...)
|-----2------0--|---------------|---------------|---------------|--------------|
|----------0----|---------------|---------------|---------------|--------------|
|---3-----------|-3--33--3-3-3-3|-3--33--3-3-3-3|-3--33--3-3-3-3|-3--33--3-33--|
|-1------3------|---------------|---------------|---------------|--------------|

(A gathering of angels...)
|------------|--------------|-------------|-----------|
|------------|--------------|-------------|-----------|
|-3-----3----|-3----3--333--|-3-----3---3-|-3----3----|
|------3-----|--------------|------3------|-----------|

(Come sail away...)         x3  then
|-------------|---------------|------------|  |--------|back|---------------|
|*------------|--------------*|------------| 2|--------|  to|-----1---------|
|*-3----3-----|-3----3--333--*|-3----3-----| 4|-3-33-3-|   4|---------------|
|------3------|---------------|-----3------|  |--------|   4|-4-----4--333--|

                                (I thought that they were angels...)
|---------------|--------------|-----------|-------------|
|---------------|--------------|-----------|-------------|
|-3--33--3-3-3-3|-3--33--3-33--|-3----3----|-3----3-333--|
|---------------|--------------|-----3-----|-------------|

(We climbed aboard their starship...)
|------------|-------------|
|------------|-------------|
|-3----3-3---|-3---3-33-3--|
|------------|-------------|

(Come sail away...) Repeat and fade
|-------------|---------------|----------||
|*------------|--------------*|----------||
|*-3----3-----|-3----3--333--*|-3--------||
|------3------|---------------|----------||




Whole note:  |-1--------|
Dotted half: |-1------|
Half note:   |-1----|
Quarter note:|-1--|
Eighth note: |-1-|
Sixteenth:   |-1|
R=rest (rests work the same way)
New measure: |-
             |-
             |-
             |-

Questions, comments: sk8now22@sbcglobal.net
Suggest correction
Give kudos to tab author, rate the tab!
1 2 3 4 5
comments
print report bad tab
1 comment total.
0 reply
Jasonbts 3,087 wrote on October 4 2011, 12:11 am

Maybe this is how you play it but I don't hear most of this in the song, and then parts are still missing.

guest
You may want to rate the tab now too:
select rating
Please do not post tabs as comments. Select "correction" instead!