Oops, an error
Loading. Please wait.

Crystal Ball Bass Tab

version 1
version 1

Whole song

Interactive

by Styx
1,074 views 1 this week
no commentswrite comment
1 2 3 4 5
please rate
add to favorites
launch autoscroll
font size
0
reset
guitar tuner
Autoscroll
slow
fast
+/-
esc
set tempo
stop
Help us to improve Ultimate-Guitar.com Take our survey!
×
Author
Styx Crystal Ball

standard tuning

1:36 
G|-----------------------------------------------------| 
D|--------------------------------------------------02-|
A|-7-7777777777777777------7-------222--222--222--23---|
E|---------------------0-0----0---0----0----0----0-----|

1:45
G|--------------------------------------------------------------------------------| 
D|-------------------------------02--------------------------------02-------------|
A|-----7---2----222--222--222--23--------7---2----222--222--222--23----3-3--2--5~-|
E|-0-0----0----0----0----0----0------0-0----0----0----0----0----0-----------------|

2:03
G|--------------------------------------------------------------------------------------| 
D|-----------54---------------------------54---------------------------54---------------|
A|-7---77---7--5--00-55--0545-77----77---7--5--00-55--0545-77----77---7--5--00-55--0545-|
E|---7-----7---------------------77-----7---------------------77-----7------------------|

2:21
G|--------------------------------------------------------------------------------| 
D|-------------54---------------------------54--------------------------54--------|
A|-77----77---7--55--00-55--0545-77----77--7--5--00-55--0545-77----77--7--55--0-5-|
E|----77----------------------------77--------------------------77----------------|

2:40
G|-----------------------------------------------------------| 
D|-----------------------------------------------------------|
A|-3-3-3-3-3-3-3-3--5-5-5-5-5-5-5-5--2-2-2-2--2-2--2-2--2--2-|
E|-----------------------------------------------------------|

2:46
G|----------------------------------------------------------| 
D|----------------------------------------------------------|
A|-7-7--7---5-7--7--3---3--3-5--7-7--7---5-7--7--3---3--3-5-|
E|--------7-----------3----------------7-----------3--------|

2:57
G|----------------------------------------------------------------------------------| 
D|----------------------------------------------------------------------------------|
A|-7-7--7---5-7--7--3---3--3-5--7-7--7---5-7--7--3--2--0--5--7--9--7-77777777777777-|
E|--------7-----------3----------------7--------------------------------------------|

3:13
G|---------------------------------------------------------------------| 
D|-------------------------------02---------------------------------02-|
A|-----7---2----222--222--222--23-------7---2--2---222--222--222--23---|
E|-0-0----0----0----0----0----0-----0-0----0------0----0----0----0-----|

3:25
G|-------------------------------------------------| 
D|----------------------------------02-------------|
A|-----7---2--2----222--222--222--23----3-3--2--5~-|
E|-0-0----0-------0----0----0----0-----------------|

3:38 
G|-----------------------------------------------------------------------------------------| 
D|-----------54---------------------------54---------------------------54------------------|
A|-7---77---7--5--00-55--0545-77----77---7--5--00-55--0545-77----77---7--5--00-55--0545-77-|
E|---7-----7---------------------77-----7---------------------77-----7---------------------|

3:57 repeat until end
G|------------------------------------------------------------------------------------| 
D|------------54---------------------------54--------------------------54-------------|
A|-77----77--7--55--00-55--0545-77----77--7--5--00-55--0545-77----77--7--55--00--0545-|
E|----77---------------------------77--------------------------77---------------------|

Suggest correction
Give kudos to tab author, rate the tab!
1 2 3 4 5
comments
print report bad tab
guest
You may want to rate the tab now too:
select rating
Wanna post a correction for this tab? Suggest correction