Oops, an error
Loading. Please wait.

Dont Let It End Bass Tab

version 1
version 1

Whole song

Interactive

by Styx
1,416 views 15 this week
no commentswrite comment
1 2 3 4 5
please rate
add to favorites
launch autoscroll
font size
0
reset
guitar tuner
Tab Pro tools
  • play this tab
  • loop segment
  • change instrument
  • show fretboard
  • metronome
Autoscroll
slow
fast
+/-
esc
set tempo
stop
Contributor
standard tuning

:38
G|---------------------------------------------------------------------------------|
D|---------------------------------------------------------------------------------|
A|-4--3--1--------1----------------------------------------------------------------|
E|----------4--2-----1--2---2~----2-2-2-2-2-2-2-2--2-2-2-2-2-2-2-2--1--1-1--1--1-1-|

1:12
G|--------------------------------------------------------------------------|
D|--------------------------------------------------------------------------|
A|-1--1-1--1--1-1--------------------4-4-444--3-3-333---------------------4-|
E|-----------------4--4--4-4----4-4--------------------4-4-444--4--4--4-6---|

1:29
G|-------------------------------------------------------------------------------|
D|-------------------------------------------------------------------------------|
A|-4-4-444--3-3-333---------------------4--11--1--111--1-1-111--1-1-111--1-1-111-|
E|-------------------4-4-444--4--4--4-6------------------------------------------|

1:46
G|------------------------------------------------------------------------|
D|------------------------------------------------------------------------|
A|--------------------------------------4-4-444--2-2-222--1-1-111-------2-|
E|-2-2-222--2-2-222--2-2-222--44444444-----------------------------4-4----|

2:03
G|------------------------------------------------------------------------------------|
D|------------------------------------------------------------------------------------|
A|-4-4-444--2-2-222--1-1-111----------------2--4-4-444--3-3-333---------------------4-|
E|----------------------------5--5--5--5--5----------------------4-4-444--4--4--4-6---|

2:22
G|----------------------------------------------------------------------------|
D|----------------------------------------------------------------------------|
A|-4-4-444--3-3-333---------------------4--1-1-111--1-1-111--1-1-111--1-1-111-|
E|-------------------4-4-444--4--4--4-6---------------------------------------|

2:39
G|------------------------------------------------------------------|
D|------------------------------------------------------------------|
A|----------------------------------------------4--4-4-444--3-3-333-|
E|-2-2-222--22-2-222--22-2-222--4--4--4--4--4-6---------------------|

2:54
G|--------------------------------------------------------------|
D|--------------------------------------------------------------|
A|--------------------4--4-4-444--3-3-333---------------------4-|
E|-4-4-444--4--4--4-6----------------------4-4-444--4--4--4-6---|

3:07
G|---------------------------------------------------------------------------------|
D|---------------------------------------------------------------------------------|
A|-4-4-444--2-2-222--1-1-111----------------2--4-4-444--2-2-222--------------------|
E|----------------------------5--5--5--5--5----------------------2-2---44444444--4-|

3:28
G|------------------------------------------|
D|--------------------------------------7---|
A|-4--2--1-----4--2--1------------4~-----4~-|
E|----------5-----------5~------------------|

4:13 repeat until end
G|------------|
D|------------|
A|-4--2--1----|
E|----------5-|

comments
We did not receive enough feedback on this tab! Please rate:
print report bad tab
1 2 3 4 5
I want to post or [tab]
guest
You may want to rate the tab now too:
select rating
Please do not post tabs as comments. Select "correction" instead!