Oops, an error
Loading. Please wait.

Eddie Bass Tab

by Styx
102 views 1 this week
no commentswrite comment
1 2 3 4 5
please rate
add to favorites
launch autoscroll
font size
0
reset
guitar tuner
Tab Pro tools
  • play this tab
  • loop segment
  • change instrument
  • show fretboard
  • metronome
×
Best way to learn
"Eddie"
Autoscroll
slow
fast
+/-
esc
set tempo
stop
Contributor
standard tuning

:12 
G|------------------------------------------------------|
D|------------------------------------------------------|
A|-5/0--3-2-0----5-555-5/0--3--2--3--5-555-5/0--3-2-0---|
E|------------3---------------------------------------3-|

:20 x3
G|----------------------------------------|
D|----------------------------------------|
A|-5-555-5/0--3--2--3--5-555-5/0--3-2-0---|
E|--------------------------------------3-|

:40
G|-----------------------------------------------------------------------------------------|
D|-----------------------------------------------------------------------------------------|
A|-2--22--2-2--22-----00-----00--2--22--2-2--22--0------0------2--22---------0-0000--------|
E|-----------------3------3-------------------------33-----33---------3--33---------2-2222-|

1:00
G|--------------------------------------------------------------|
D|--------------------------------------------------------------|
A|-2-2--2-2--22--2-2--2-2--22--2-2--2-2--22--5---7--7-7-7-7-7-7-|
E|--------------------------------------------------------------|

1:14
G|-----------------------------------------------------------------|
D|-----------------------------------------------------------------|
A|-2-2--2-2--22--2-2--2-5-5-7/0--2-2--2-2--22--2-0-2-0-2-0-2-0---0-|
E|-------------------------------------------------------------2---|

1:28 x2
G|----------------------------------------------------------------------------------|
D|----------------------------------------------------------------------------------|
A|-2-0-2--0---00----0---2-0-2--0---00----0---2-0-2--0---00----0--5---7--7-7-7-7-7-7-|
E|----------3-----3---3----------3-----3---3----------3-----3-----------------------|

1:54 x4
G|----------------------------------------|
D|----------------------------------------|
A|-5-555-5/0--3--2--3--5-555-5/0--3-2-0---|
E|--------------------------------------3-|

2:21
G|------------------------------------------------------------|
D|------------------------------------------------------------|
A|-2--22--2-2--22-----00-----00--2--22--2-2--22--0------0-----|
E|-----------------3------3-------------------------33-----33-|

2:34
G|-------------------------------------------|
D|-------------------------------------------|
A|-2--22---------2--22---------2-------0-----|
E|--------3--33---------3--33------3-------2-|

2:49
G|--------------------------------------------------------------|
D|--------------------------------------------------------------|
A|-2-2--2-2--22--2-2--2-2--22--2-2--2-2--22--5---7--7-7-7-7-7-7-|
E|--------------------------------------------------------------|

3:03
G|---------------------------------------------------------------|
D|---------------------------------------------------------------|
A|-2-2--2-2--22--2-2--2-5-5-7--2-2--2-2--22--2-0-2-0-2-0-2-0---0-|
E|-----------------------------------------------------------2---|

3:17
G|-------------------------------------------------------------|
D|-------------------------------------------------------------|
A|-2-2--2-2--22--2-2--2-2--22--2-2--2-2--22--2-2-2/0--2222-2/0-|
E|-------------------------------------------------------------|

3:30 repeat until end
G|----------|
D|----------|
A|-2-22-2/0-|
E|----------|
comments
We did not receive enough feedback on this tab! Please rate:
print report bad tab
1 2 3 4 5
I want to post or [tab]
guest
You may want to rate the tab now too:
select rating
Please do not post tabs as comments. Select "correction" instead!