Oops, an error
Loading. Please wait.

Edge Of The Century Bass Tab

by Styx
165 views 1 this week
no commentswrite comment
1 2 3 4 5
please rate
add to favorites
launch autoscroll
font size
0
reset
guitar tuner
Tab Pro tools
  • play this tab
  • loop segment
  • change instrument
  • show fretboard
  • metronome
×
Best way to learn
"Edge Of The Century"
Autoscroll
slow
fast
+/-
esc
set tempo
stop
Contributor
standard tuning

:14
G|---------------------------------------------------------------------------|
D|---------------------------------------------------------------------------|
A|----------------------------------------------------------------9-10-------|
E|-5--------5-5-5-5-5-5-5-5--5-5-5-5-5-5-5-5--5-5-5-5-5-5-5-5--10------3-3-5-|

:26 
G|--------------------------------------------------------------------|
D|--------------------------------------------------------------------|
A|--------------------------------------------------------------------|
E|-5-5-5-5-5-5-5-5--5-5-5-5-5-5-5-5--5-5-5-5-5-5-5-5--5-5-5-5-5-5-5-5-|

:33
G|------------------------------------------------------------------|
D|------------------------------------------------------------------|
A|-------------------------------------------------------9-10-------|
E|-5-5-5-5-5-5-5-5--5-5-5-5-5-5-5-5--5-5-5-5-5-5-5-5--10------3-3-5-|

:39
G|--------------------------------------------------------------------|
D|--------------------------------------------------------------------|
A|--------------------------------------------------------------------|
E|-5-5-5-5-5-5-5-5--5-5-5-5-5-5-5-5--5-5-5-5-5-5-5-5--5-5-5-5-5-5-5-5-|

:45 
G|--------------------------------------------------------------------|
D|--------------------------------------------------------------------|
A|-----------------------------------3-3-3-3-3-3-3-3--2-2-2-2-2-2-2-2-|
E|-5-5-5-5-5-5-5-5--5-5-5-5-5-5-5-5-----------------------------------|

:52
G|---------------------------------------------------------------------|
D|---------------------------------------------------------------------|
A|-----------------------------------3-3-3-3-3-3-3-3--2-2-2-2-2-2------|
E|-5-5-5-5-5-5-5-5--5-5-5-5-5-5-5-5--------------------------------5-5-|

1:04
G|----------------------------|
D|----------------------------|
A|---5-------------9-10-------|
E|-3---5--------10------3-3-5-|

1:11
G|--------------------------------------------------------------------|
D|--------------------------------------------------------------------|
A|--------------------------------------------------------------------|
E|-5-5-5-5-5-5-5-5--5-5-5-5-5-5-5-5--5-5-5-5-5-5-5-5--5-5-5-5-5-5-5-5-|

1:17
G|------------------------------------------------------------------|
D|------------------------------------------------------------------|
A|-------------------------------------------------------9-10-------|
E|-5-5-5-5-5-5-5-5--5-5-5-5-5-5-5-5--5-5-5-5-5-5-5-5--10------3-3-5-|

1:23
G|--------------------------------------------------------------------|
D|--------------------------------------------------------------------|
A|--------------------------------------------------------------------|
E|-5-5-5-5-5-5-5-5--5-5-5-5-5-5-5-5--5-5-5-5-5-5-5-5--5-5-5-5-5-5-5-5-|

1:30 
G|--------------------------------------------------------------------|
D|--------------------------------------------------------------------|
A|-----------------------------------3-3-3-3-3-3-3-3--2-2-2-2-2-2-2-2-|
E|-5-5-5-5-5-5-5-5--5-5-5-5-5-5-5-5-----------------------------------|

1:36
G|---------------------------------------------------------------------|
D|---------------------------------------------------------------------|
A|-----------------------------------3-3-3-3-3-3-3-3--2-2-2-2-2-2------|
E|-5-5-5-5-5-5-5-5--5-5-5-5-5-5-5-5--------------------------------5-5-|

1:48
G|-----------------------------------------------------------|
D|-----------------------------------------------------------|
A|---5------------5----------5------------3-5----------5-3---|
E|-3---5--------3---5----------3-5------------5------------5-|

2:08
G|-------------------------------------------------------------------------------------|
D|-------------------------------------------------------------------------------------|
A|-------------------------------------------------------------------------------------|
E|-3-3-3-3-3-3-3-3--2-2-2-2-2-2-2-2--1-1-1-1-1-1-1-1--0-0-0-0-0-0-0-0--3-3-3-3-3-3-3-3-|

2:14
G|-------------------------------------------------------------------------------------|
D|-------------------------------------------------------------------------------------|
A|-------------------------------------------------------------------------------------|
E|-2-2-2-2-2-2-2-2--1-1-1-1-1-1-1-1--1-1-1-1-1-1-1-1--1-1-1-1-1-1-1-1--1-1-1-1-1-1-1-1-|

2:24
G|--------------------------------------------------------------------------|
D|--------------------------------------------------------------------------|
A|--------------------------------------------------------------------------|
E|-5-5-5-5-5-5-5-5--5-5-5-5-5-5-5-5--0-3-4-5-5-5-5-5-5-5-5--5-5-5-5-5-5-5-5-|

2:30
G|---------------------------------------------------------------------------|
D|---------------------------------------------------------------------------|
A|---------------------------------------------------------------------------|
E|-5-5-5-5-5-5-5-5--5-5-5-5-5-5-5-5--0-3-4-5-5-5-5-5-5-5-5--5-5-5-5-5-5--3-3-|

2:37
G|--------------------------------------------------------------------|
D|--------------------------------------------------------------------|
A|-3-3-3-3-3-3-3-3--2-2-2-2-2-2-2-2-----------------------------------|
E|-----------------------------------5-5-5-5-5-5-5-5--5-5-5-5-5-5-5-5-|

2:43
G|---------------------------------------------------------------------------------------|
D|---------------------------------------------------------------------------------------|
A|-3-3-3-3-3-3-3-3--------------------------3------------3-5----------5-3------------5---|
E|------------------3-3-3-3-3-3--0-0----------3-5------------5------------5--------3---5-|

3:05
G|--------------------------------------------------------------------|
D|--------------------------------------------------------------------|
A|--------------------------------------------------------------------|
E|-3-3-3-3-3-3-3-3--2-2-2-2-2-2-2-2--1-1-1-1-1-1-1-1--0-0-0-0-0-0-0-0-|

3:14
G|------------------------------------------------------------------|
D|------------------------------------------------------------------|
A|-3-5------------5---------------3-5-------------------------------|
E|-----5--------3---5--------0--------3---2---1---0---3---2---1---0-|

3:40 x2
G|--------------------------------------------------------------------|
D|--------------------------------------------------------------------|
A|--------------------------------------------------------------------|
E|-3-3-3-3-3-3-3-3--2-2-2-2-2-2-2-2--1-1-1-1-1-1-1-1--0-0-0-0-0-0-0-0-|

3:53
G|---------------------------------------------------------------------|
D|---------------------------------------------------------------------|
A|---------------------------------------------------------------------|
E|-3-3-3-3-3-3-3-3--2-2-2-2-2-2-2-2--1-1-1-1-1-1-1-1--0-0-0-0-0-0--5-5-|

4:02
G|----------------------|
D|----------------------|
A|---------------9-10---|
E|-5-5--------10------3-|
comments
We did not receive enough feedback on this tab! Please rate:
print report bad tab
1 2 3 4 5
I want to post or [tab]
guest
You may want to rate the tab now too:
select rating
Please do not post tabs as comments. Select "correction" instead!