Oops, an error
Loading. Please wait.

Evil Eyes Bass Tab

by Styx
84 views 1 this week
no commentswrite comment
1 2 3 4 5
3 more votes to show rating
add to favorites
launch autoscroll
font size
0
reset
guitar tuner
Autoscroll
slow
fast
+/-
esc
set tempo
stop
Help us to improve Ultimate-Guitar.com Take our survey!
×
Author
Styx Evil Eyes

standard tuning

:49
G|-----------------------------------------------|
D|-----------------------------------------------|
A|-------4--4--44-4--4--4--4-4--4--4--44-4--4--4-|
E|-4--4------------------------------------------|

1:07
G|------------------------------------------------------------------|
D|-------------------4----------------------------------------------|
A|---4-6----6------4---6-----------4-6----6-4-6------4-6-6----------|
E|-6-------------6----------4----6-----------------6----------4-2-4-|

1:31
G|------------------------------------------------------------------------------|
D|------------------------------------------------------------------------------|
A|---4-6-6----6-4-6------4-6-6----------4--4--44-4--4--4--4-4--4--4--44-4--4--4-|
E|-6-------------------6----------4--4------------------------------------------|

1:59
G|-----------------------------------------8-----------------|
D|-------------------4------------------8----8--------/6--46-|
A|---4-6----6------4---6-----------4-6---------6--4----------|
E|-6-------------6----------4----6---------------------------|

2:17
G|----------8------------------------------------------|
D|-------8----8---------6-6-------9--9-8-6----8--8-6-4-|
A|-4-6/---------6----6-6-6-----------------------------| 
E|----------------4--------6-4--7-----------6----------|

2:26
G|-----------------------------------------------------|
D|----------------------9--9-8-6----8--8-6-4-----------|
A|-------6/11---11-------------------------------------|
E|-4--44------11--11--7-----------6-----------4-44-4-4-|

2:34
G|---------------------------------------8-6-8-----------------------8-6-8------|
D|-------------------4----------------------------------8-8---------------------|
A|-----6----6------4---6-----------4-6-6--------6----8-8-8-----4-6-6--------6---|
E|-4-4-----------6----------4----6----------------6----------6----------------4-|

2:56
G|------------------8-6-8------------------------8-6-8-----------------|
D|----6-6--------------------------8-8---------------------------6---6-|
A|-6-6-6-----4-6-6---------6----8-8-8-----4-6-6---------6------6---6---|
E|---------6-----------------6----------6-----------------4--4---------|

3:10
G|-------------------------------------------------------------------------------|
D|---9--9-8-6----8--8-7-6-----------------------9--9-8-6----8--8-7-6-------------|
A|-------------------------------6/11---11----------------------------------6/11-|
E|-7-----------6-----------4--44------11--11--7-----------6-----------4--44------|

3:22
G|---------8--------------------------8-------------------------------------------|
D|------8----8--------/6--46-------8----8---------6-6--------9--9-8-6----8--8-6-4-|
A|-4-6---------6--4-----------4-6---------6----6-6-6------------------------------| 
E|------------------------------------------4---------6-4--7-----------6----------|

3:36
G|--------------------------------------------------------|
D|-----------------------9--9-8-6----8--8-6-4-------------|
A|-------6/11----11----------------------------------6/11-|
E|-4--44------11---11--7-----------6-----------4--44------|
Suggest correction
Give kudos to tab author, rate the tab!
1 2 3 4 5
comments
print report bad tab
guest
You may want to rate the tab now too:
select rating
Wanna post a correction for this tab? Suggest correction