Oops, an error
Loading. Please wait.

Father Osa bass

by Styx
74 views 1 this week
no commentswrite comment
1 2 3 4 5
3 more votes to show rating
add to favorites
×
Save as Personal and add changes to this tab that will be seen only by you. Learn more ›
×
You can save this tab as Personal to edit and correct it or add notes. All changes will be seen only by you. Learn more »
launch autoscroll
font size
0
reset
guitar tuner
edit
Autoscroll
slow
fast
+/-
esc
set tempo
stop
Father O.S.A.
by Styx

Intro
 4/4
|------------||-------------7----|-------------5----|
|------------||---------4s7---7\-|---------2s5---5\-|
|------------||-5-----5----------|-3-----3----------|
|------------||----5-------------|----3-------------|


|------------------------|-----------|
|------------------------|-----------|
|------------------2-3-4-|-5----5----|
|-3--2-3--2-3--2-3-------|-----------|


|---------------|---------------|----------|----------------|
|---------------|---------------|----------|----------5-5s7-|
|-5-------(5)-5-|-3-------(3)-3-|----------|-5----(5)-------|
|---------------|---------------|-3--------|----------------|


|-------------7----|-------------5----|------------------------|------||
|---------4s7---7\-|---------2s5---5\-|------------------------|------||
|-5-----5----------|-3-----3----------|------------------2-3-4-|-5----||
|----5-------------|----3-------------|-3--2-3--2-3--2-3-------|------||


Verse

||--<7>--------|-17--------|-<12>--------|
||o------------|-----------|-------------|
||o------------|-----------|-------------|
||-------------|-----------|-------------|


 1.,2.,3.       4.

|-<7>---------||-<7>----(<7>)---------||
|------------o||--------------5-5-7---||
|------------o||----------------------||
|-------------||----------------------||


|----------------|----------------||
|----------5-5-7-|----------5-5-7-||
|-5----(5)-------|-5----(5)-------||
|----------------|----------------||


                                          1.             2.
||--<7>--------|-17--------|-<12>--------|-<7>---------||-<7>----(<7>)---------|
||o------------|-----------|-------------|------------o||--------------5-5-7---|
||o------------|-----------|-------------|------------o||----------------------|
||-------------|-----------|-------------|-------------||----------------------|


|----------------|----------------||
|----------5-5-7-|----------5-5-7-||
|-5----(5)-------|-5----(5)-------||
|----------------|----------------||


Keyboard Solo
              1.,2.,3.     4.

||-----------|-----------||----------------||
||o----------|----------o||----------5-5s7-||
||o-5--------|-3--------o||-3----(3)-------||
||-----------|-----------||----------------||


Guitar Solo

|-------------7----|-------------5----|
|---------4s7---7\-|---------2s5---5\-|
|-5-----5----------|-3-----3----------|
|----5-------------|----3-------------|


|------------------------|----------------------------------||
|------------------------|--------4-5-(5)-6-(6)-7-(7)-7-----||
|------------------2-3-4-|-5--3s5-----------------------7\--||
|-3--2-3--2-3--2-3-------|----------------------------------||


Bridge

|------------------------7------|----------------------5------|
|--------4-5-(5)-6-(6)-7---7----|------2-3-(3)-4-(4)-5---5----|
|-3s5--5---------------------7\-|-3--3---------------------5\-|
|-------------------------------|-----------------------------|


|---------------------------|------------------------7-7----|
|---------------------------|--------4-5-(5)-6-(6)-7-----7\-|
|-----------------------2-3-|-5--3s5------------------------|
|-3-2-0-3-2-3-(3)-2-3-3-----|-------------------------------|


|------------------------7------|----------------------5------|
|--------4-5-(5)-6-(6)-7---7----|------2-3-(3)-4-(4)-5---5----|
|-3s5--5---------------------7\-|-3--3---------------------5\-|
|-------------------------------|-----------------------------|


|---------------------------|-----------------||
|---------------------------|----------5-5s7--||
|-----------------------2-3-|-5----(5)--------||
|-3-2-0-3-2-3-(3)-2-3-3-----|-----------------||


Drum Solo

|----------|------------------|----------|------------------||
|----------|------------5-5-7-|----------|------------5-5-7-||
|-5--------|-(5)----(5)-------|-5--------|-(5)----(5)-------||
|----------|------------------|----------|------------------||


Breakdown

|----------|----------|----------|--------19-19-19-19-19-17-----||
|----------|----------|----------|--------------------------19\-||
|-5--------|----------|----------|------------------------------||
|----------|----------|----------|------------------------------||


Outro

|----------------------7------|----------------------5------|
|------4-5-(5)-6-(6)-7---7----|------2-3-(3)-4-(4)-5---5----|
|-5--5---------------------7\-|-3--3---------------------5\-|
|-----------------------------|-----------------------------|


|------------------------|------------------------7------|
|------------------------|--------4-5-(5)-6-(6)-7---7----|
|------------------2-3-4-|-5--3s5---------------------7\-|
|-3--2-3--2-3--2-3-------|-------------------------------|


|------------------------7------|----------------------5------|
|--------4-5-(5)-6-(6)-7---7----|------2-3-(3)-4-(4)-5---5----|
|-3s5--5---------------------7\-|-3--3---------------------5\-|
|-------------------------------|-----------------------------|


|---------------------------|---------7--7-7-5----|
|---------------------------|------------------7--|
|-----------------------2-3-|-5--3s5--------------|
|-3-2-0-3-2-3-(3)-2-3-3-----|---------------------|


|-------------7----|-------------5----|
|---------4s7---7\-|---------2s5---5\-|
|-5-----5----------|-3-----3----------|
|----5-------------|----3-------------|


|------------------------|------------------------7-------|
|------------------------|--------4-5-(5)-6-(6)-7---7-----|
|------------------2-3-4-|-5--3s5---------------------7\--|
|-3--2-3--2-3--2-3-------|--------------------------------|


|------------------------7------|----------------------5------|
|--------4-5-(5)-6-(6)-7---7----|------2-3-(3)-4-(4)-5---5----|
|-3s5--5---------------------7\-|-3--3---------------------5\-|
|-------------------------------|-----------------------------|


|---------------------------|------------------------7------|
|---------------------------|--------4-5-(5)-6-(6)-7---7----|
|-----------------------2-3-|-5--3s5---------------------7\-|
|-3-2-0-3-2-3-(3)-2-3-3-----|-------------------------------|


|------------------------7------|----5-3---5-(5)-3---5-(5)-3-----|
|--------4-5-(5)-6-(6)-7---7----|--------5---------5---------5---|
|-3s5--5---------------------7\-|-3----------------------------5-|
|-------------------------------|--------------------------------|


|------------------------|---------19-19-19-19-17--------|
|----5-3-----------------|----0-------------------19\----|
|--------5-----------3-4-|-5-----------------------------|
|-3--------3-(3)-0-3-----|-------------------------------|


|------------------------7------|----------------------5------|
|--------4-5-(5)-6-(6)-7---7----|------2-3-(3)-4-(4)-5---5----|
|-3s5--5---------------------7\-|-3--3---------------------5\-|
|-------------------------------|-----------------------------|


|---------------------------|------------------------7------|
|---------------------------|--------4-5-(5)-6-(6)-7---7----|
|-----------------------2-3-|-5--3s5---------------------7\-|
|-3-2-0-3-2-3-(3)-2-3-3-----|-------------------------------|


|------7-5---7-(7)-5---7-(7)-5----|----5-3---5-(5)-3---5-(5)-3-----|
|----------7---------7---------7\-|--------5---------5---------5---|
|-3s5-----------------------------|-3----------------------------5-|
|---------------------------------|--------------------------------|


|------------------------|------------------------7------|
|----5-3-----------------|--------4-5-(5)-6-(6)-7---7----|
|--------5-----------3-4-|-5--4s5---------------------7\-|
|-3--------3-(3)-0-3-----|-------------------------------|


|------------------------7------|----5-3---5-(5)-3---5-(5)-3------|
|--------4-5-(5)-6-(6)-7---7----|--------5---------5---------5----|
|-3s5--5---------------------7\-|-3----------------------------5\-|
|-------------------------------|---------------------------------|


|---------------------------|------------------------7-7-----|
|---------------------------|--------4-5-(5)-6-(6)-7-----7\--|
|-----------------------2-3-|-5--3s5-------------------------|
|-3-2-0-3-2-3-(3)-2-3-3-----|--------------------------------|


|------------------------7------|---------------5-5-|
|--------4-5-(5)-6-(6)-7---7----|-------5-3---------|
|-3s5--5---------------------7\-|-3--3------5-3-----|
|-------------------------------|-------------------|


|------------------------|------------------------7--------|
|----5-3-----------------|--------4-5-(5)-6-(6)-7---7------|
|--------5-----------3-4-|-5--4s5---------------------7\---|
|-3--------3-(3)-0-3-----|---------------------------------|


|------------------------7------|----5-3---5-(5)-3---5-(5)-3------|
|--------4-5-(5)-6-(6)-7---7----|--------5---------5---------5----|
|-3s5--5---------------------7\-|-3----------------------------5\-|
|-------------------------------|---------------------------------|


|---------------------------|------------------------7-7-----|
|---------------------------|--------4-5-(5)-6-(6)-7-----7\--|
|-----------------------2-3-|-5--3s5-------------------------|
|-3-2-0-3-2-3-(3)-2-3-3-----|--------------------------------|


|-------------7----|-------------5----|
|---------4s7---7\-|---------2s5---5\-|
|-5-----5----------|-3-----3----------|
|----5-------------|----3-------------|


|------------------------|------------------------7-------|
|------------------------|--------4-5-(5)-6-(6)-7---7-----|
|------------------2-3-4-|-5--3s5---------------------7\--|
|-3--2-3--2-3--2-3-------|--------------------------------|


|------------------------7------|----------------------5------|
|--------4-5-(5)-6-(6)-7---7----|------2-3-(3)-4-(4)-5---5----|
|-3s5--5---------------------7\-|-3--3---------------------5\-|
|-------------------------------|-----------------------------|


|---------------------------|------------------------7------*|
|---------------------------|--------4-5-(5)-6-(6)-7---7----*|
|-----------------------2-3-|-5--3s5---------------------7\-*|
|-3-2-0-3-2-3-(3)-2-3-3-----|-------------------------------*|
Suggest correction
Creating personal tab
Creating personal tab
You can edit any tab online and save it as your Personal.

You can edit, replace or remove any tab part or add personal notes – all changes will be seen only by you.

Personal tabs can be accessed anytime from any device, even offline.
Learn more »
Give kudos to tab author, rate the tab!
1 2 3 4 5
comments
print report bad tab
guest
You may want to rate the tab now too:
select rating
Wanna post a correction for this tab? Suggest correction