Oops, an error
Loading. Please wait.

Fooling Yourself The Angry Young Man Bass Tab

version 1
version 1

Whole song

Interactive

by Styx
1,643 views 3 this week
no commentswrite comment
1 2 3 4 5
excellent!
x 3
add to favorites
launch autoscroll
font size
0
reset
guitar tuner
Tab Pro tools
  • play this tab
  • loop segment
  • change instrument
  • show fretboard
  • metronome
×
Best way to learn
"Fooling Yourself The Angry Young Man"
Autoscroll
slow
fast
+/-
esc
set tempo
stop
Contributor
standard tuning

:05
G|------------------------------------------------|
D|---------------------5-5-5-5------------5-5-5-5-|
A|-5----5----5----5-------------5----5------------|
E|------------------------------------------------|

:31
G|----------------------------------------------|
D|-----5-7-----5-7-5----7------5-7-----5-7-5--7-|
A|-5-------5---------------5-------5------------|
E|----------------------------------------------|

:51
G|--------------------------------------------|
D|---------------------5-5-5-5--5--5--5--5--7-|
A|-5----5----5----5---------------------------|
E|--------------------------------------------|

1:22 keep repeating
G|-----|
D|---7-|
A|-5---|
E|-----|

1:52
G|---------------|
D|---------------|
A|-1-1-1-1-1-1-1-|
E|---------------|

1:57           
G|--------------------------------------------------------------------------------|
D|--------------------------------------------------------------------------------|
A|-0-0-0-0-0-0-121012--0-0-12-12--0-0-121012--0-0-0-0-0-0-121012--0-0-0-0-0-0-0-0-| 
E|--------------------------------------------------------------------------------|

2:06 keep repeating
G|-----|
D|---7-|
A|-5---|
E|-----|

2:19
G|---------------|
D|---------------|
A|-1-1-1-1-1-1-1-|
E|---------------|

2:25
G|-----------------------------------------------------------------------------------------|
D|-----------------------------------------------------------------------------------------|
A|-0-0-12-12--0-0-121012--0-0-12-12--0-0-121012--0-0-12-12--0-0-121012--0-0-12-12--0-0-0-0-|
E|-----------------------------------------------------------------------------------------|

2:34 
G|---------------------------------------------------------------------|
D|---------------------------------------------------------------------|
A|-5-5-5-5--5-5-5-5--5-5-5-5--5-5-5-5--5-5-5-5--5-5-5-5--3-3-3-3-3-3-3-|
E|---------------------------------------------------------------------|

2:43 
G|------------------------------------------------------|
D|------------------------------------------------------|
A|-5-5-5-5--5-5-5-5--5-5-5-5--5-5-5-5--5-5-5-5--5-5-5-5-|
E|------------------------------------------------------|

2:50
G|------------------------------------------------------------------------|
D|------------------------------------------------------------------------|
A|-3-3-3-3--3-3-3-3--3-3-3-3--3-3-3-3--3-3-3-3--3-3-3-3--3-3-3-3--3-3-3-3-|
E|------------------------------------------------------------------------|

2:59 
G|---------------------------------------------------------------------|
D|----7-----7-----7-----7-----7-----7-----7--------7-----7-----7-------|
A|-5-----5-----5-----5-----5-----5-----5-----5--5-----5-----5-----5--5-|
E|---------------------------------------------------------------------|

3:12
G|------------------------------------------------------------------------------------|
D|----7-----7-----7--------7-----7-----7--------7-----7-----7--------7-----7-----7----|
A|-5-----5-----5-----5--5-----5-----5-----5--5-----5-----5-----5--5-----5-----5-----5-|
E|------------------------------------------------------------------------------------|

3:29
G|-----------------------------------------------------------------------|
D|----7-----7-----7--------7-----7-----7--------8-----8-----8------10----|
A|-5-----5-----5-----5--5-----5-----5-----5------------------------------|
E|-------------------------------------------6-----6-----6-----6--6----8-|

3:46
G|-----------------------------------------------------------------------------------|
D|-----------------------------------------------------------------------------------|
A|-0-01212--0-0-0121012--0-01212--0-121012---0-0-12-12--0-0121012--0-0-12-12--0-0-12-|
E|-----------------------------------------------------------------------------------|

3:55 
G|---------------------------------------------------------------------|
D|---------------------------------------------------------------------|
A|-5-5-5-5--5-5-5-5--5-5-5-5--5-5-5-5--5-5-5-5--5-5-5-5--3-3-3-3-3-3-3-|
E|---------------------------------------------------------------------|

4:04 
G|------------------------------------------------------|
D|------------------------------------------------------|
A|-5-5-5-5--5-5-5-5--5-5-5-5--5-5-5-5--5-5-5-5--5-5-5-5-|
E|------------------------------------------------------|

4:11 
G|------------------------------------------------------------------------|
D|------------------------------------------------------------------------|
A|-3-3-3-3--3-3-3-3--3-3-3-3--3-3-3-3--3-3-3-3--3-3-3-3--3-3-3-3--3-3-3-3-|
E|------------------------------------------------------------------------|

4:20
G|---------------------------------------------|
D|-------------------------------5-7-----5-7---|
A|-5---3---1---5--5--5--5------------5-------5-|
E|---------------------------------------------|

4:45 repeat until end                                       
G|-------------------------|
D|-5-7---------------------|     
A|-----5--55-5--55-5--55-5-|
E|-------------------------|

comments
We did not receive enough feedback on this tab! Please rate:
print report bad tab
1 2 3 4 5
I want to post or [tab]
guest
You may want to rate the tab now too:
select rating
Please do not post tabs as comments. Select "correction" instead!