Oops, an error
Loading. Please wait.

Grand Illusion Tab

version 2
version 2

Solo

Whole song

Interactive

by Styx
1,615 views 1 this week
no commentswrite comment
1 2 3 4 5
accurate
x 2
add to favorites
launch autoscroll
font size
0
reset
how to read this tab
guitar tuner
Tab Pro tools
  • play this tab
  • loop segment
  • change instrument
  • show fretboard
  • metronome
Autoscroll
slow
fast
+/-
esc
set tempo
stop
Contributor
Styx: The Grand Illusion

No solos yet...

Intro:

e||-----------------|-----------------|-----------------|
B||-----------------|-----------------|-----------------|
G|4o---------------o|-----------------|-----------------|
D|4o3--------------o|-3---------------|-----------------|
A||-3---------------|-3-----------1---|-3---------------|
E||-1---------------|-1---------------|---------1---3---|

e||-----------------|-----------------|-----------------|
B||-----------------|-----------------|-----------------|
G|4o---------------o|-----------------|-----------------|
D|4o3--------------o|-3---------------|-----------------|
A||-3---------------|-3-----------1---|-3---------------|
E||-1---------------|-1---------------|---------1---3---|

e||-----------------|-----------------|-----------------|
B||-----------------|-----------------|-----------------|
G|4o---------------o|-----------------|-----------------|
D|4o6--------------o|-6---------------|-----------------|
A||-6---------------|-6-----------4---|-6---------------|
E||-4---------------|-4---------------|---------4---6---|

e||-----------------|-----------------|-----------------|
B||-----------------|-----------------|-----------------|
G|4o---------------o|-----------------|-----------------|
D|4o6--------------o|-6---------------|-----------------|
A||-6---------------|-6-----------4---|-6-----------6~~-|
E||-4---------------|-4---------------|-------4---------|

Verse:

Note: Before all the powerchords, there is a glider slide.

C#5
Welcome ..... illusion
C#5
Come on ..... happen
C#5                   Fill1
Pay the ..... for the show

Fill1:

e||-----------------|-----------------|
B||-----------------|-----------------|
G|4o----------------|----------------o|
D|4o----------------|---------4-3----o|
A||-----------------|-------------6-4-|
E||-4-----4-4-----4-|-4-----4---------|

C#5
The stage ...... playing
C#5
Suddenly ....... pounding
C#5                Fill1
Wishing ........ a star

Bridge:

e||-----------------|-----------------|-----------------|--------------------|
B||4/12~------------|------------10-12|-10--------------|--------------------|g
G|4-----------------|-----------------|-----------------|--------------------|t
D|4-----------------|-----------------|-----------------|--------------------|r
A||-----------------|-----------------|-----------------|------------------1-|
E||-----------------|-----------------|-----------------|--------------------|
||                                                                        |
e||-----------------|-----------------|-----------------|--------------------|
B||-----------------|-----------------|-----------------|--------------------|g
G|4-----------------|-----------------|-----------------|--------------------|t
D|4-----------------|-----------------|-----------------|--------------------|r
A||-6---------------|-----------------|-6-4-6-----------|------------------2-|
E||-----------------|-----------------|-----------------|--------------------|
            Don't be  ......  by  ...          Ra  di     o

e||-----------------|-----------------|-----------------|--------------------|
B||-----------------|-----------------|-----------------|--------------------|g
G|4-----------------|-----------------|/3~--------------|--------------------|t
D|4-----------------|-----------------|-----------------|--------------------|r
A||-----------------|-----------------|-----------------|------------------1-|
E||-----------------|-----------------|-----------------|--------------------|
||                                                                        |
||                                                                        |
e||-----------------|-----------------|-----------------|--------------------|
B||-----------------|-----------------|-----------------|--------------------|g
G|4-----------------|-----------------|-----------------|--------------------|t
D|4---------4-3-----|-----------------|-----------------|--------------------|r
A||-------------6-4-|-6-------6-4-----|-----------------|-----------h------2-|
E||-4-----4---------|-------------6-4-|-6---------------|-6.--4.--4---6------|
          The T.V.    ..      the ....  zines

e||-----------------|-----------------|-----------------|--------------------|
B||-----------------|---------4-2-4---|-----------------|---------4.--2.-----|g
G|4-----------------|-----------------|-----------------|--------------------|t
D|4-----------------|-----------------|-----------------|--------------------|r
A||-----------------|-----------------|-----------------|------------------1-|
E||-----------------|-----------------|-----------------|--------------------|
||                                                                        |
||                                                                        |
e||-----------------|-----------------|-----------------|--------------------|
B||-----------------|-----------------|-----------------|--------------------|g
G|4-----------------|-----------------|-----------------|--------------------|t
D|4-----------------|-----------------|-----------------|--------------------|r
A||-6---------------|-----------------|-6-4-6-----------|------------------2-|
E||-----------------|-----------------|-----------------|--------------------|
       They'll .... ... photographs          of ... ... ... should be

e||--h-p------------|-----------------|-----------------|--------------------|
B||-1-2-1-----------|-----------------|-----------------|--------------------|g
G|4-------1---------|-----------------|-----------------|--------------------|t
D|4---------1-------|-----------------|-----------------|--------------------|r
A||-----------------|-----------------|-----------------|------------------1-|
E||-----------------|-----------------|-----------------|--------------------|
||                                                                        |
||                                                                        |
e||-----------------|-----------------|-----------------|--------------------|
B||-----------------|-----------------|-----------------|--------------------|g
G|4-----------------|-----------------|-----------------|--------------------|t
D|4---------4-3-----|-----------------|-----------------|--------------------|r
A||-------------6-4-|-6-------6-4-----|-----------------|------------------2-|
E||-4-----4---------|-------------6-4-|-6-----------4---|--------------------|
         But they're just ....... else's ...ta      sy

Chorus on bass:

e||-----------------|-----------------|-----------------|------------------|
B||-----------------|-----------------|-----------------|------------------|
G|4o----------------|-----------------|-----------------|------------------|
D|4o----------------|-----------------|-----------------|------------------|
A||-4-----------4---|-3-----------3---|-1-----------1---|-1-------1--------|
E||-----------------|-----------------|-----------------|-------------4----|

                                      _____________________________________
                                      | 1st ending                         |
e||-----------------|-----------------|-----------------|------------------|
B||-----------------|-----------------|-----------------|------------------|
G|4-----------------|-----------------|-----------------|------------------|
D|4-----------------|-----------------|-----------------|-3-------1--------|
A||-----------------|-----------------|-1---------------|------------------|
E||-2-----------2---|-2-----------2---|---------4-------|------------------|
   ___________________________________
  | 2nd ending                        |
e||-----------------|-----------------|
B||-----------------|-----------------|
G|4-----------------|----------------o|
D|4-----------------|----------------o|
A||-----------------|-----------------|
E||-4---------------|-----------------|

Riff over solo:

e||-----------------|-----------------|-----------------|------------------|
B||-----------------|-----------------|-----------------|------------------|
G|4o----------------|-----------------|-----------------|------------------|
D|4o----------------|-----------------|-----------------|------------------|
A||-----------------|---------------4-|-----------------|------------------|
E||-6.----------6.--|---------6-4-6---|-6.----------6.--|-1-------4--------|

e||-----------------|-----------------|-----------------|------------------|
B||-----------------|-----------------|-----------------|------------------|
G|4-----------------|-----------------|-----------------|-----------------o|
D|4-----------------|-----------------|-----------------|-----------------o|
A||-----------------|---------------4-|-6-4---------6~--|-----4~-----------|
E||-6.----------6.--|---------6-4-6---|-----6.----------|------------------|
comments
We did not receive enough feedback on this tab! Please rate:
print report bad tab
1 2 3 4 5
I want to post or [tab]
guest
You may want to rate the tab now too:
select rating
Please do not post tabs as comments. Select "correction" instead!