Oops, an error
Loading. Please wait.

Grand Illusion chords

version 3
version 3

Whole song

Interactive

by Styx
358 views 6 this week
no commentswrite comment
1 2 3 4 5
2 more votes to show rating
add to favorites
×
Save as Personal and add changes to this tab that will be seen only by you. Learn more ›
×
You can save this tab as Personal to edit and correct it or add notes. All changes will be seen only by you. Learn more »
launch autoscroll
font size
0
reset
transpose
0
reset
simplify chords
display chords
guitar tuner
edit
Autoscroll
slow
fast
+/-
esc
set tempo
stop
Author
Difficulty
Strumming
There is no strumming pattern for this song yet. and get +5 IQ
Transpose +1 steps with buttons on the left for original key, or capo up 1, or just play like this.

SEE PERFORMANCE NOTES AT BOTTOM!

Intro: ( E F#/E  E B/E  E F#/E B/E E F#/B ) x2
       ( G  A/G  G D/G  G A/G  D/G G G/A ) 
       ( G  A/G  G D/G  G A/G  D/G G )

Gadd11                         Gadd11
Welcome to the Grand illusion, come on in and see what's happening     
Gadd11                                    G    /F /E /D /C   G /F /E /D /C
Pay the price, get your tickets for the show

Gadd11                                     Gadd11
The stage is set, the band starts playing, suddenly your heart is pounding
Gadd11                        G    /F /E /D /C   G /F /E /D /C
Wishing secretly you were a star

Dm                   Dsus2        G                  Am
But don't be fooled by, the radio, the TV or the magazines
Dm                      Dsus2                       G                                  Am    G
They show you photographs of how your life should be, but they're just someone else's fantasies
C         Em/B             Am                   FM7                          Am
So if you think your life is, complete confusion, because you never win the game
C      Em/B       Am                     FM7                                G             Am
Just remember that, it's a Grand illusion, cause deep inside we're all the same, all the same

Solo: Am

Intro: ( E F#/E  E B/E  E F#/E B/E E F#/B ) x2
       ( G  A/G  G D/G  G A/G  D/G G G/A )
       ( G  A/G  G D/G  G  /G /F /E /D )

C         Em/B              Am                 FM7                               Am
So if you think your life is, complete confusion, because your neighbors got it made
C      Em/B       Am                      FM7                         G
Just remember that, it's a Grand illusion, deep inside we're all the same

Solo: ( C Em Am G# ) x2

Gadd11                      Gadd11
America spells competition, join us in our blind ambition
Gadd11                          Am  G#
Get yourself a brand new motor car

Gadd11                           Gadd11
Someday soon we'll stop to ponder what on Earth's this spell we're under
Gadd11                                Gadd11
We made the grade and still we wonder who the hell we are

Repeat To Fade:  C D/C  C G/C  C D/C  G C D


  E F/E B/E  G A/G D/G   Gadd11  Dsus2  Am solo riff notes (details omitted)
e----------|-----------|---3-------0--|--------------------------------------------------
B--------4-|--3-----3--|---3-------3--|--------------------------------------------------
G--------4-|--0--2--2--|---0-------2--|-------------------5-7p5----7-5-------------------
D-2--4---4-|--0--2--0--|---0-------0--|--7--2-5-7--7p5h7--5-7p5-7--7-5-------------------
A-2--4-----|--2--------|---3----------|--7--2-5-7--7p5h7--------7------------------------
E-0--0---0-|--3--3--3--|---3----------|--------------------------------------------------

  C D/C G/C
e--------3-|-----------------------------------------------------------------------------
B-1--3---3-|-----------------------------------------------------------------------------
G-0--2---0-|-----------------------------------------------------------------------------
D-2--0---0-|-----------------------------------------------------------------------------
A-3--3---3-|-----------------------------------------------------------------------------
E----------|-----------------------------------------------------------------------------

(A/G would really be A5/G or Am/G, etc - just using simpler names for space...)

            
            
Suggest correction
Creating personal tab
Creating personal tab
You can edit any tab online and save it as your Personal.

You can edit, replace or remove any tab part or add personal notes – all changes will be seen only by you.

Personal tabs can be accessed anytime from any device, even offline.
Learn more »
Give kudos to tab author, rate the tab!
1 2 3 4 5
comments
print report bad tab
guest
You may want to rate the tab now too:
select rating
Wanna post a correction for this tab? Suggest correction