Oops, an error
Loading. Please wait.

Great White Hope Bass Tab

by Styx
255 views 1 this week
no commentswrite comment
1 2 3 4 5
please rate
add to favorites
launch autoscroll
font size
0
reset
guitar tuner
Tab Pro tools
  • play this tab
  • loop segment
  • change instrument
  • show fretboard
  • metronome
×
Best way to learn
"Great White Hope"
Autoscroll
slow
fast
+/-
esc
set tempo
stop
Contributor
Styx Great White Hope

standard tuning

:10 x3
G|----------------------------------|
D|----------------------------------|
A|----------------------------------|
E|-0-0-0-0-0-0-0-0--0-0-0-0-0-0-0-0-|

:30
G|--------------------------|
D|--------------------------|
A|---------------------0--2-|
E|-0-0-0-0-0-0-0-0--3-------|

:38 x2
G|------------------------------|
D|------------------------------|
A|-2-2-2-22-2-2-2--2-2-2-2----5-|
E|-------------------------3----|

:51
G|------------------------------|
D|------------------------------|
A|-7-7-7-77-7-7-7--7-7-7-7----5-|
E|-------------------------3----|

:57
G|------------------------------|
D|------------------------------|
A|-2-2-2-22-2-2-2--2-2-2-2----5-|
E|-------------------------3----|

1:04 x3
G|----------------------------------|
D|----------------------------------|
A|----------------------------------|
E|-0-0-0-0-0-0-0-0--0-0-0-0-0-0-0-0-|

1:24
G|----------------------------------------|
D|----------------------------------------|
A|---------------------0--2---0-1-2--5--5-|
E|-0-0-0-0-0-0-0-0--3-------2-------------|

1:32
G|---------------------------------------------------------|
D|---------------------------------------------------------|
A|-2---0-1-2--5--5--5--2---0-1-2--5--5--2---0-1-2--5--5--5-|
E|---2-------------------2----------------2----------------|

1:43
G|-------------------------------------------------|
D|-------------------------------------------------|
A|-2-4--4--4--4---4-4-2-4----2-4--4--4--4--4-2-4---|
E|------------------------4----------------------4-|

1:49
G|-----------------------------------------------|
D|-----------------------------------------------|
A|-2-4--4--4--4---4-2-4----2-4--4--4--4--4-2-4---|
E|----------------------4----------------------4-|

1:56 x3
G|------------------|
D|------------------|
A|-5-53-5-0-33-1--1-|
E|------------------|

2:02
G|-------------------------------------------------|
D|-------------------------------------------------|
A|-3---3---3---3--53-5-0-33-1--1--5-53-5-0-33-1--1-|
E|---3---3---3-------------------------------------|

2:07
G|------------------------------------------------|
D|------------------------------------------------|
A|-5-53-5-0-33-1--1--3---3---3---3--5---5---5---5-|
E|---------------------3---3---3------5---5---5---|

2:13 
G|----------------------------------|
D|----------------------------------|
A|----------------------------------|
E|-0-0-0-0-0-0-0-0--0-0-0-0-0-0-0-0-|

2:20
G|-------------------------------------|
D|-------------------------------------|
A|------------------------------777777-|
E|-0-0-0-0-0-0-0-0--0-0-0-0-0-0--------|

2:26
G|----------------------------------|
D|----------------------------------|
A|----------------------------------|
E|-0-0-0-0-0-0-0-0--0-0-0-0-0-0-0-0-|

2:32
G|----------------------------------------|
D|----------------------------------------|
A|---------------------0--2---0-1-2--5--5-|
E|-0-0-0-0-0-0-0-0--3-------2-------------|

2:41
G|------------------------------------------------------------|
D|------------------------------------------------------------|
A|-2---0-1-2--5--5--5--2---0-1-2--5--5--2---0-1-2--5--5--5--2-|
E|---2-------------------2----------------2-------------------|

2:59
G|-------------------------------------|
D|-------------------------------------|
A|----5---2-2-2-22-2-2-2--2-2-2-2----5-|
E|-3------------------------------3----|

3:07
G|-------------------------------|
D|-------------------------------|
A|-7-7-7-77-7-7-7--7-7-7-7-----5-|
E|--------------------------3----|

3:14
G|------------------------------|
D|------------------------------|
A|-2-2-2-22-2-2-2--2-2-2-2----5-|
E|-------------------------3----|

3:21
G|----------------------------------|
D|----------------------------------|
A|----------------------------------|
E|-0-0-0-0-0-0-0-0--0-0-0-0-0-0-0-0-|

3:27
G|-------------------------------------|
D|-------------------------------------|
A|------------------------------777777-|
E|-0-0-0-0-0-0-0-0--0-0-0-0-0-0--------|

3:34
G|----------------------------------|
D|----------------------------------|
A|----------------------------------|
E|-0-0-0-0-0-0-0-0--0-0-0-0-0-0-0-0-|

3:41
G|-------------------------------------|
D|-------------------------------------|
A|------------------------------777777-|
E|-0-0-0-0-0-0-0-0--0-0-0-0-0-0--------|

3:47 repeat until end
G|-----------------|
D|-----------------|
A|-----------------|
E|-0-0-0-0-0-0-0-0-|

comments
We did not receive enough feedback on this tab! Please rate:
print report bad tab
1 2 3 4 5
I want to post or [tab]
guest
You may want to rate the tab now too:
select rating
Please do not post tabs as comments. Select "correction" instead!