Oops, an error
Loading. Please wait.

Half Penny Two Penny Bass Tab

by Styx
137 views 1 this week
no commentswrite comment
1 2 3 4 5
please rate
add to favorites
launch autoscroll
font size
0
reset
guitar tuner
Autoscroll
slow
fast
+/-
esc
set tempo
stop
Help us to improve Ultimate-Guitar.com Take our survey!
×
Author
guy7bmwm5 1,373
Styx Half Penny Two Penny

standard tuning

:00
G|---------------------------------------------|
D|---------------------------------------------|
A|-------------------------------------------0-|
E|-0-0------0-0------0-0------0-0------3-000---|

:15 
G|------------------------------------------------------|
D|------------------------------------------------------|
A|------------------------------------------------------|
E|-0-0-0-0--0-0-0-0--0-0-0-0--0-0-0-0--0-0-0-0--0-0-0-0-|

:26
G|-----------------------------------------------------------|
D|---------------------------------------------------------7-|
A|----------------7/0-----------------7/0-----------10-777---|
E|-0-0-0-0--0-0-0------0-0-0-0--0-0-0------0-0-0-0-----------|

:37 
G|------------------------------------------------------|
D|------------------------------------------------------|
A|------------------------------------------------------|
E|-0-0-0-0--0-0-0-0--0-0-0-0--0-0-0-0--0-0-0-0--0-0-0-0-|

:49
G|-----------------------------------------------------|
D|-------------------------------------------------2-5-|
A|-------------5--3--7-8-10--------33--7-8-10--0-3-----|
E|-0-0-0-0--3---------------3--33----------------------|

1:00
G|-------------------------------------------------------------------|
D|-------------------------------------------------------------------|
A|-3--7-8-10--------0-0-12-12-12-12-121210--1012-----------------7/0-|
E|-----------33--3------------------------12------0-0-0-0--0-0-0-----|

1:10
G|-----------------------------------------------------------|
D|---------------------------------------------------------7-|
A|----------------7/0-----------------7/0-----------10-777---|
E|-0-0-0-0--0-0-0------0-0-0-0--0-0-0------0-0-0-0-----------|

1:22
G|------------------------------------------------------|
D|------------------------------------------------------|
A|------------------------------------------------------|
E|-0-0-0-0--0-0-0-0--0-0-0-0--0-0-0-0--0-0-0-0--0-0-0-0-|

1:33
G|-------------------------------------------------------|
D|---------------------------------------------------5---|
A|-------------5--3--7-8-10--------33--7-8-10--0-3-5-----|
E|-0-0-0-0--3---------------3--33----------------------3-|

1:44
G|-------------------------------------------------|
D|-------------------------------------------------|
A|-3--7-8-10---------0000-00-12-12-12-121210--1012-|
E|-----------33--33-------------------------12-----|

1:52 keep repeating
G|---------|
D|---------|
A|---------|
E|-0-0-0-0-|

2:37
G|------------------------------------------|
D|------------------------------------------|
A|-------------2-1-0--------------------7/0-|
E|-0-0-------3-------3---0-0-0-0--0-0-0-----|

2:48 x3
G|----------------------------------------|
D|----------------------------------------|
A|----------------7/0-----------------7/0-|
E|-0-0-0-0--0-0-0------0-0-0-0--0-0-0-----|

3:10
G|-------------------------------------------------------------|
D|---------------------------------------------------------5---|
A|-------7/0----2-3-5--3--7-8-10---------33--7-8-10--0-3-5-----|
E|-0-0-0------3------------------33--33----------------------3-|

3:21
G|--------------------------------------------------------|
D|-----------------------7--------------------------------|
A|-3--7-8-10---------0-0------2-3-5-7-8--3--7-8-10--------|
E|-----------33--33---------3----------------------33--33-|

3:32
G|----------------------------------------|
D|------------------5---------------------|
A|-3--7-8-10--0-3-5------3--7-8-10--------|
E|--------------------3------------33--33-|

3:39
G|---------------------------------------------------------------------|
D|---------------------------------------------------------------------|
A|-0000-12-12-12-12-121210--1012--------7---7---7/0----7---7---7---7/0-|
E|------------------------12------0-0-0---0---0------0---0---0---0-----|

3:50
G|------------------------------------------------------|
D|------------------------------------------------------|
A|------------------------------------------------------|
E|-0-0-0-0--0-0-0-0--0-0-0-0--0-0-0-0--0-0-0-0--0-0-0-0-|

4:01
G|------------------------------------------------------------|
D|--------------------------------------------------------5---|
A|-------7/0----2-3-5--3--7-8-10---------3--7-8-10--0-3-5-----|
E|-0-0-0------3------------------33--33---------------------3-|

4:12
G|-------------------------------------------------------------|
D|-------------------------------------------------------------|
A|-3--7-8-10---------0000-12-12----2-3-5-7-8--3--7-8-10--------|
E|-----------33--33--------------3----------------------33--33-|

4:23
G|-----------------------------------------------------------------|
D|------------------5----------------------------------------------|
A|-3--7-8-10--0-3-5------3--7-8-10---------0000-12-12----2-3-5-7-8-|
E|--------------------3------------33--33--------------3-----------|

4:34
G|-----------------------------------------------------------|
D|-----------------------------------------------------------|
A|-3--3-------0--0--7---7-5-3--3--------0----7--7-5-8--8--10-|
E|-------3------------------------3--3-----------------------|

4:52
G|--------------------------------------------------------------|
D|--------------------------------------------------------------|
A|-0-------3-----0--7--7-5-3--3--------0--0--7--7--8--8--10--10-|
E|----1-3-----3------------------3--3---------------------------|

5:14
G|----------------------------------------------------|
D|----------------------------------------------------|
A|-0-------3-----0--7--7-5-3-----0--07--8--10--0------|
E|----1-3-----3---------------3-------------------1-3-|

5:40
G|-----------------------------------|
D|-----------------------------------|
A|-3-----0--7--7-5-3-----0--7--8--10-|
E|----3---------------3--------------|
Suggest correction
What's this?
You can suggest a correction to this tab. Community and Mods will review your correction and vote to approve or reject it.
comments
We did not receive enough feedback on this tab! Please rate:
print report bad tab
1 2 3 4 5
guest
You may want to rate the tab now too:
select rating
Please do not post tabs as comments. Select "correction" instead!