Oops, an error
Loading. Please wait.

Havent We Been Here Before Bass Tab

by Styx
99 views 1 this week
no commentswrite comment
1 2 3 4 5
please rate
add to favorites
launch autoscroll
font size
0
reset
guitar tuner
Tab Pro tools
  • play this tab
  • loop segment
  • change instrument
  • show fretboard
  • metronome
×
Best way to learn
"Havent We Been Here Before"
Autoscroll
slow
fast
+/-
esc
set tempo
stop
Contributor
standard tuning

:00
G|--------------------------------------------------------|
D|-9--7--9--7--9--7------9--7--9--7--9--7--9--7--9--7-----|
A|-------------------7---------------------------------7--|
E|--------------------------------------------------------|

:29
G|------------------------------------------------------------------------------------|
D|-9--7--9--7--9--7--9--7--9--7-------------------------------------------------------|
A|---------------------------------------7----7-7-2-0---5--7--2-0---------------------|
E|-------------------------------3--3-------------------------------3---3-5---3---3-5-|

1:14
G|-----------------------------------------------------------------------------|
D|-----------------------------------------------------------------------------|
A|---------------------------5----0-1-2---4-5---0-1-2--2-4-5-7--5--0---7--5--0-|
E|-0---5---0---5---3---3-5-----------------------------------------------------|

1:45
G|---------------------------------------------------------------------|
D|---------------------------------------------------------------------|
A|-5--4--2--0--5-7--6--5--4--0-5--4--2--0--5-7--6--5--4--2---0---------|
E|---------------------------------------------------------------3---5-|

2:15
G|-------------------------------------------------------------------------|
D|-------------------------------------------------------------------------|
A|-------------------7---2-0---5-7---2-0---5---0-1-2---7--5--0---5---0-1-2-|
E|-3---3-5---3---5---------------------------------------------------------|

2:49
G|-------------------------------------------------------------------------------|
D|-------------------------7-----------------------------------------------------|
A|-7--5--00-00-22-22-44-44---0-4-5---0-1-2---4-5---0-1-2---4-5-7--5--0---7--5--0-|
E|-------------------------------------------------------------------------------|

3:15
G|---------------------------------------------------------------------|
D|---------------------------------------------------------------------|
A|-0-4--5--4--2--0--5-7--6-5-4--0-5--4--2--0--5-7--6-5-4--2---0--------|
E|----------------------------------------------------------------3--5-|

3:45
G|----------------------------|
D|----------------------------|
A|-7-------7-------10---------|
E|-----5-------5--------8---2-|
comments
We did not receive enough feedback on this tab! Please rate:
print report bad tab
1 2 3 4 5
I want to post or [tab]
guest
You may want to rate the tab now too:
select rating
Please do not post tabs as comments. Select "correction" instead!