Oops, an error
Loading. Please wait.

Heavy Metal Poisoning Bass Tab

version 1
version 1

Whole song

Interactive

by Styx
154 views 1 this week
no commentswrite comment
1 2 3 4 5
please rate
add to favorites
launch autoscroll
font size
0
reset
guitar tuner
Tab Pro tools
  • play this tab
  • loop segment
  • change instrument
  • show fretboard
  • metronome
×
Best way to learn
"Heavy Metal Poisoning"
Autoscroll
slow
fast
+/-
esc
set tempo
stop
Contributor
Styx Heavy Metal Poisoning

standard tuning

:05
G|----------------------------------------------------------------------------|
D|-------------------------------------3--5------------------------------3--5-|
A|----------------------------------------------------------------------------|
E|-3--------3-3---1--3-3---1--3-3---3---------3-3---1--3-3---1--3-3---3-------|

:17
G|------------------------------------------------------------------|
D|----------------------------3--5-----------------------------3--5-|
A|------------------------------------------------------------------|
E|-3-3---1--3-3---1--3-3---3---------3-3---1--3-3---1--3-3---3------|

:23 
G|-------------------------------------------------------------------------------------------|
D|-------------------------------------------------------------------------------------------|
A|-------------------1-1---1-------1-------1-1---------------------1-1---1-------1-------1-1-|
E|-6/---1---6/---1-------------4-------4---------6/---1---6/---1-------------4-------4-------|

:35
G|-------------------------------------------------------------------------------------|
D|-------------------------------------------------------------------------------------|
A|-3/-------3/-------3-3---3-------3-------3-3---3/-------3/-------3-3---5---3---5---8-|
E|------3--------3-------------6-------6--------------3--------3-----------------------|

:47 
G|-------------------------------------------------------------------------------------------|
D|-------------------------------------------------------------------------------------------|
A|-------------------1-1---1-------1-------1-1---------------------1-1---1-------1-------1-1-|
E|-6/---1---6/---1-------------4-------4---------6/---1---6/---1-------------4-------4-------|

:59
G|------------------------------------------------------------------------------------------|
D|------------------------------------------------------------------------------------------|
A|-3/-------3/-------3-3---3-------3-------3-3---3/-------3/-------3-3---5---3---5--3--1--0-|
E|------3--------3-------------6-------6--------------3--------3----------------------------|

1:11
G|-----------------------------------------------------------------------------------------|
D|-----------------------------------------------------------------------------------------|
A|------------------------1-------3----------------------------------8--6------------------|
E|-3---3---1--3-3---3-3-------1-------0-1-2---3---3---1--3-3---3-3---------8---8---6/8-8-8-|

1:23
G|------------------------------------------|
D|------------------------------------------|
A|------------------------1-------3---------|
E|-3---3---1--3-3---3-3-------1-------0-1-2-|

1:29
G|-------------------------------------------------------------|
D|------------------------3--1-----3--1------------------------|
A|------------------------------3--------3-------------------1-|
E|-3---3---1--3-3---3-3-------------------------3--3--3--------|

1:40
G|------------------------------------------------------------------|
D|----------------------------3--5-----------------------------3--5-|
A|------------------------------------------------------------------|
E|-3-3---1--3-3---1--3-3---3---------3-3---1--3-3---1--3-3---3------|

1:46 
G|-------------------------------------------------------------------------------------------|
D|-------------------------------------------------------------------------------------------|
A|-------------------1-1---1-------1-------1-1---------------------1-1---1-------1-------1-1-|
E|-6/---1---6/---1-------------4-------4---------6/---1---6/---1-------------4-------4-------|

1:59
G|------------------------------------------------------------------------------------------|
D|------------------------------------------------------------------------------------------|
A|-3/-------3/-------3-3---3-------3-------3-3---3/-------3/-------3-3---5---3---5--3--1--0-|
E|------3--------3-------------6-------6--------------3--------3----------------------------|

2:11
G|-----------------------------------------------------------------------------------------|
D|-----------------------------------------------------------------------------------------|
A|------------------------1-------3----------------------------------8--6------------------|
E|-3---3---1--3-3---3-3-------1-------0-1-2---3---3---1--3-3---3-3---------8---8---6/8-8-8-|

2:22
G|---------------------------------------------------------------------------------------------|
D|---------------------------------------------------------------------------------------------|
A|------------------------1-------3----------------------------------8--6-----8--6-----8--6----|
E|-3---3---1--3-3---3-3-------1-------0-1-2---3---3---1--3-3---3-3---------8--------8--------8-|

2:43
G|----------------------------|
D|----------------------------|
A|-----------------6~------5~-|
E|-5~------3~-----------------|

2:55 
G|-------------------------------------------------------------------------------------------|
D|-------------------------------------------------------------------------------------------|
A|-------------------1-1---1-------1-------1-1---------------------1-1---1-------1-------1-1-|
E|-6/---1---6/---1-------------4-------4---------6/---1---6/---1-------------4-------4-------|

3:07
G|------------------------------------------------------------------------------------------|
D|------------------------------------------------------------------------------------------|
A|-3/-------3/-------3-3---3-------3-------3-3---3/-------3/-------3-3-4-5---3---5--3--1--0-|
E|------3--------3-------------6-------6--------------3--------3----------------------------|

3:19 x2
G|-------------------------------------------------------------------|
D|----------------------------3--5------------------------------3--5-|
A|-------------------------------------------------------------------|
E|-3-3---1--3-3---1--3-3---3---------3-3---1--3-3---1--3-3---3-------|

3:31
G|----------------------------5--7------------------------------5--7-|
D|-------------------------------------------------------------------|
A|-5-5---3--5-5---3--5-5---5---------5-5---3--5-5---3--5-5---5-------|
E|-------------------------------------------------------------------|

3:37
G|----------------------------5--7--------------------------------|
D|----------------------------------------------------------------|
A|-5-5---3--5-5---3--5-5---5---------5-5---3--5-5---5---3---1---0-|
E|----------------------------------------------------------------|

3:42 x3
G|------------------------------------------------------------------------------------|
D|------------------------------------------------------------------------------------|
A|------------------------1-------3----------------------------------8--6-----8--6----|
E|-3---3---1--3-3---3-3-------1-------0-1-2---3---3---1--3-3---3-3---------8--------8-|

4:18
G|---------------------------------------------------------------------------------------------|
D|---------------------------------------------------------------------------------------------|
A|------------------------1-------3----------------------------------8--6-----8--6-----8--6----|
E|-3---3---1--3-3---3-3-------1-------0-1-2---3---3---1--3-3---3-3---------8--------8--------8-|

4:30                                                    4:45
G|--------------------------------------------------------------|
D|--------------------------------------------------------------|
A|-8--6-----8--6------8--6------8--6------8--6--2~------3-3-3-3-|
E|-------8--------8---------8---------8-------------------------|
comments
We did not receive enough feedback on this tab! Please rate:
print report bad tab
1 2 3 4 5
I want to post or [tab]
guest
You may want to rate the tab now too:
select rating
Please do not post tabs as comments. Select "correction" instead!