Oops, an error
Loading. Please wait.

High Time Bass Tab

by Styx
87 views 1 this week
no commentswrite comment
1 2 3 4 5
3 more votes to show rating
add to favorites
launch autoscroll
font size
0
reset
guitar tuner
Autoscroll
slow
fast
+/-
esc
set tempo
stop
Help us to improve Ultimate-Guitar.com Take our survey!
×
Author
Styx High Time

standard tuning

:15 x2
G|-------------------------------------------------------------|
D|-------------------------------------------------------------|
A|-4--2----2-4--2----2-4--2----2-4--2----2-4--2----2-4--2----2-|
E|-------4---------4---------4---------4---------4---------4---|  


:39 
G|--------------------------------------------------------|
D|--------------------------------------------------------|
A|-6--4----4-6--4----4-6--4----4-6--4----4-6--4----4-6--4-|
E|-------6---------6---------6---------6---------6--------|


:50         
G|--------------------------| 
D|--------------------------|  
A|---4-6-4---4--4-4-4-4-4-4-| 
E|-6--------6---------------| 


:55 x2
G|-------------------------------------------------------------|
D|-------------------------------------------------------------|
A|-4--2----2-4--2----2-4--2----2-4--2----2-4--2----2-4--2----2-|
E|-------4---------4---------4---------4---------4---------4---|  


1:19 
G|--------------------------------------------------------|
D|--------------------------------------------------------|
A|-6--4----4-6--4----4-6--4----4-6--4----4-6--4----4-6--4-|
E|-------6---------6---------6---------6---------6--------|


1:30       
G|-------------------------|
D|-------------------------|
A|---4-6--4--9-------------|
E|-6-----------11-9-11--11-|


1:35 
G|----------------------------------------|
D|---6---6----6--6-6-----6---6----6--6-6--|
A|----------------------------------------|
E|-4---4---44---4-4-4--4---4---44---4-4-4-|


1:42
G|---------------------------------------|
D|---6---6----6--6-6-----6---6---6--6-6--|
A|---------------------------------------|
E|-4---4---44---4-4-4--4---4---4---4-4-4-|


1:50 
G|---8---8----8--8-8-----8---8----8--8-8--|
D|----------------------------------------|
A|-6---6---66---6-6-6--6---6---66---6-6-6-|
E|----------------------------------------|


1:58
G|---8---8----8--8-8-----8---8---8--8-8--|
D|---------------------------------------|
A|-6---6---66---6-6-6--6---6---6---6-6-6-|
E|---------------------------------------|


2:06 
G|-----------------------------------------------------------|
D|---6---6----6--6-6-----6---6----6--6-6-----6---6---6--6-6--|
A|-----------------------------------------------------------|
E|-4---4---44---4-4-4--4---4---44---4-4-4--4---4---4---4-4-4-|


2:18
G|----------------------------------------------------------------|
D|---6---6---6----------------------------------------------------|
A|-----------------2---2-4------2---2-4------2---2-4------2---2-4-|
E|-4---4---4-----4---4--------4---4--------4---4--------4---4-----|


2:36
G|--------------------------------------------------------------|
D|--------------------------------------------------------------|
A|-444444-44-2--4-2---2---4-2---2---4-2---2---4-2---2---4-2---2-|
E|------------------4---------4---------4---------4---------4---|


2:48
G|-----------------------------------------------------------------------------|
D|----------------------------------------------------------------------4------|
A|-4-2---2-----4-2---2---4-2---2-----4-2---2---4-2---2-----4-2---2--4-6---6--6-|
E|-----4---4-------4---------4---4-------4---------4---4-------4---------------|


3:02
G|----------------------------------------|
D|---6---6----6--6-6-----6---6----6--6-6--|
A|----------------------------------------|
E|-4---4---44---4-4-4--4---4---44---4-4-4-|


3:09
G|---------------------------------------|
D|---6---6----6--6-6-----6---6---6--6-6--|
A|---------------------------------------|
E|-4---4---44---4-4-4--4---4---4---4-4-4-|


3:17 
G|---8---8----8--8-8-----8---8----8--8-8--|
D|----------------------------------------|
A|-6---6---66---6-6-6--6---6---66---6-6-6-|
E|----------------------------------------|


3:25
G|---8---8----8--8-8-----8---8---8--8-8--|
D|---------------------------------------|
A|-6---6---66---6-6-6--6---6---6---6-6-6-|
E|---------------------------------------|


3:33 repeat until end
G|-------------------------------------------|
D|---------------------------4----4---4----4-|
A|-------------------------------------------|
E|-4--4--4--4--4--4--4--4--2---22---2---22---|
Suggest correction
Give kudos to tab author, rate the tab!
1 2 3 4 5
comments
print report bad tab
guest
You may want to rate the tab now too:
select rating
Wanna post a correction for this tab? Suggest correction