Oops, an error
Loading. Please wait.

Just Get Through This Night Bass Tab

by Styx
296 views 1 this week
no commentswrite comment
1 2 3 4 5
please rate
add to favorites
launch autoscroll
font size
0
reset
guitar tuner
Tab Pro tools
  • play this tab
  • loop segment
  • change instrument
  • show fretboard
  • metronome
×
Best way to learn
"Just Get Through This Night"
Autoscroll
slow
fast
+/-
esc
set tempo
stop
Contributor
standard tuning

:03      :36     :44     :48        :53                       
G|----|  |----|  |----|  |-------|  |----------|    
D|----|  |----|  |----|  |-------|  |----------|    
A|----|  |----|  |----|  |-5--0~-|  |----------|    
E|-5~-|  |-0~-|  |-5~-|  |-------|  |-3~----1~-| 
     
1:08       1:13           1:23    1:33       
G|-------|  |----------|  |----|  |-R----|
D|-------|  |----------|  |----|  |--E---|
A|-------|  |----------|  |----|  |---S--|
E|-3--5~-|  |-3~----1~-|  |-0~-|  |----T-|

1:53
G|---------------------------------------------------------------------|  
D|---------------------------------------------------------------------|  
A|-5--5--5--5--5--5--5--5-----------0-2-3-5-0---0---0--0---5--3--2--0~-| 
E|-------------------------5--5--5-------------------------------------|

2:22 
G|---------------------------------------------------------|  
D|---------------------------------------------------------|  
A|-0-------------0-------------0-------------0-------------| 
E|----0--5-5---0----0--5-5---0----0--5-5---0----0--5-5---0-|

2:32
G|-----------------------------------------------------|  
D|-----------------------------------------------------|  
A|-0-------------0-------------0-------------0---------| 
E|----0--5-5---0----0--5-5---0----0--5-5---0----0--5-5-|

2:41
G|-------------------------------------------------------|  
D|-------------------------------------------------------|  
A|-3-5--0--5-5---0-5--0--5-5---0-5--0--5-5---0-5--0--5-5-| 
E|-------------------------------------------------------|

2:52
G|---------------------------------------------------------------------------|  
D|---------------------------------------------------------------------------|  
A|-0-------------0----------3--5--0--0-0--0--0--5--3--2--0-------------------| 
E|----0--5-5---0----0--5-5----------------------------------5--5-5-5-5-5-5-5-|

3:09 x2
G|-------------------------------------|  
D|-------------------------------------|  
A|-------------------------------------| 
E|-1--1--1-0--3--5--0-5-5--0--5--0-5-5-|

3:28
G|----------------------------------------------------------------|  
D|----------------------------------------------------------------|  
A|----------------------------------------------------------------| 
E|-1--1--1-0--0-0-0-0-0-0-0-0-0-0-0--0--1~--3--5~-----3~-----1~---|

3:55
G|----------------------------------------------------------------|  
D|----------------------------------------------------------------|  
A|----------------------------------------------------------------| 
E|-1--1--5/1--1--1--3--5--5--5/1--5--5--5/1--3--3--3/1--3--3--3/1-|

4:10
G|---------------------------------------------------------------------------------------|  
D|---------------------------------------------------------------------------------------|  
A|---------------------------------------------------------------------------------------| 
E|-1--1--1/0--1--1--1/0--0-0-0-0-0-0-0-0-0-0-0-0-0-0-0-0-3-3-3-3-3-3-3-3-5-5-5-5-5-5-5-5-|

4:25
G|---------------------------------------------------------|  
D|---------------------------------------------------------|  
A|-0-------------0-------------0-------------0-------------| 
E|----0--5-5---0----0--5-5---0----0--5-5---0----0--5-5---0-|

4:35
G|-----------------------------------------------------|  
D|-----------------------------------------------------|  
A|-0-------------0-------------0-------------0---------| 
E|----0--5-5---0----0--5-5---0----0--5-5---0----0--5-5-|

4:44
G|-------------------------------------------------------|  
D|-------------------------------------------------------|  
A|-3-5--0--5-5---0-5--0--5-5---0-5--0--5-5---0-5--0--5-5-| 
E|-------------------------------------------------------|

4:54
G|-----------------------------------------------------------------|  
D|-----------------------------------------------------------------|  
A|-0-------------0----------0-2--3--5---0-------------0------------| 
E|----0--5-5---0----0--5-5----------------1-3-5--1-3----1-3-5--1-3-|

5:07
G|---------------------------------------------------------|  
D|---------------------------------------------------------|  
A|-5--3--2--0---0-------------0-------------5---3---2---0~-| 
E|----------------1-3-5--1-3----1-3-5--1-3-----------------|
comments
We did not receive enough feedback on this tab! Please rate:
print report bad tab
1 2 3 4 5
I want to post or [tab]
guest
You may want to rate the tab now too:
select rating
Please do not post tabs as comments. Select "correction" instead!