Oops, an error
Loading. Please wait.

Killing The Thing That You Love Bass Tab

by Styx
47 views 1 this week
no commentswrite comment
1 2 3 4 5
please rate
add to favorites
launch autoscroll
font size
0
reset
guitar tuner
Tab Pro tools
  • play this tab
  • loop segment
  • change instrument
  • show fretboard
  • metronome
×
Best way to learn
"Killing The Thing That You Love"
Autoscroll
slow
fast
+/-
esc
set tempo
stop
Contributor
Styx Killing The Thing That You Love

drop D tuning

:47
G|--------------------------------------------|
D|------------------------------------------0-|
A|-------------0----4--5--7---5--3-------1----|
E|-3--4--5--6-------------------------3-------|

1:06
G|-------------------------------------------------------|
D|------------------------------0----------0-------------|
A|-0----4--5--7---5--3----5---1---0------1---0------1----|
E|--------------------------3----------3----------3---0~-|

1:49
G|-------------------------------------------------------------------|
D|------------5-5-5-5-3----2--------------5-3-----------5-3----------|
A|-0--1--3-------------------0--1--3/5/3-------7--5--0-------7--5--0-|
E|-------------------------------------------------------------------|

2:20
G|------------------------------------------------------------------|
D|------------------------------------------------------------------|
A|-0----------------------------------0-000-000-004--5-555-777-7775-|
E|---3-3-3-3-4-4-4-4-5-5-5-5-6-6-6-6--------------------------------|

2:33
G|--------------------------------------------------------|
D|------------------------0-------------------------------|
A|-3-333-333-333-3-5----1---0-000-000-004--5-555-777-7775-|
E|--------------------3-----------------------------------|

2:45
G|-------------------------------------------|
D|----------------------------0----------0---|
A|-3---3---3---3---3/7/5----1---0------1---0-|
E|---5---5---5---5--------3----------3-------|

2:58
G|--------------------------------------------------|
D|------------------------------------------------0-|
A|-12/0--0--12/0--0----1-0--12/0--0--12/0--0----1---|
E|-------------------3------------------------3-----|

3:08
G|----------------------------------------------------|
D|-12/0--0--12/0--0-------------------------------0---|
A|---------------------1-0--12/0--0--12/0--0----1---0-|
E|-------------------3------------------------3-------|

3:20
G|--------------------------------------------------|
D|------------------------------------------------0-|
A|-12/0--0--12/0--0----1-0--12/0--0--12/0--0----1---|
E|-------------------3------------------------3-----|

3:31
G|---------------------------------------------------|
D|-12/0--0--12/0--0-------------------------------0~-|
A|---------------------1-0--12/0--0--12/0--0----1----|
E|-------------------3------------------------3------|

3:56
G|---------------------------------------------------------|
D|------------3-2-0-----------------5-3-------3--2----2-00-|
A|-0--1--3----------3--------00--3------33--7-------3------|
E|----------------------3/7--------------------------------|

4:18
G|-------------------------------------------------------------|
D|----------------00-------------------------------------------|
A|-0----0-------------0----0-----------------------------------|
E|----3---5-3--2---------3---5-3-3-3-3-4-4-4-4-5-5-5-5-6-6-6-6-|

4:33
G|-----------------------------------------------------------|
D|---------------------------------------------------------0-|
A|-0-000-000-004-44-5-555-777-7775-3-3-3-333-333-33-5----1---|
E|-----------------------------------------------------3-----|

4:44
G|-------------------------------------------------------|
D|-----------------------------------------------------0-|
A|-0-000-000-004-44-5-555-777-7775-3-333-333-33-5----1---|
E|-------------------------------------------------3-----|

4:56
G|-------------------------------------------------------|
D|-------------------------------------------------------|
A|-0-000-000-004-44-5-555-777-7775-3---3---3---3---3/7/5-|
E|-----------------------------------5---5---5---5-------|

5:06
G|-----------------------------|
D|-----0----------0------------|
A|---1---0------1---0-----1----|
E|-3----------3---------3---0~-|
comments
We did not receive enough feedback on this tab! Please rate:
print report bad tab
1 2 3 4 5
I want to post or [tab]
guest
You may want to rate the tab now too:
select rating
Please do not post tabs as comments. Select "correction" instead!