Oops, an error
Loading. Please wait.

Light Up Tab

by Styx
1,241 views 3 this week
no commentswrite comment
1 2 3 4 5
please rate
add to favorites
launch autoscroll
font size
0
reset
how to read this tab
guitar tuner
Autoscroll
slow
fast
+/-
esc
set tempo
stop
Help us to improve Ultimate-Guitar.com Take our survey!
×
Author
Tuning: Standard (E A D G B E)



Intro:

e||-----------------|-----------------|-----------------|-5-\--------------|
B||-----------------|-----------------|-----------------|-7-\--------------|
G|4-----------------|-----------------|-----------------|-7-\--------------|
D|4-------------7---|-----------------|-----------------|-7-\--------------|
A||-----------------|-----------------|-----------------|-5-\--------------|
E||-----------5---5-|-0---------------|-----------------|------------------|

e||-----------------|-----------------|-----------------|-3-\--------------|
B||-----------------|-----------------|-----------------|-5-\--------------|
G|4-----------------|-----------------|-----------------|-5-\-slowly slide-|
D|4-------------7---|-----------------|-----------------|-5-\------up------|
A||-----------------|-----------------|-----------------|-3-\--------------|
E||-----------5---5-|-0---------------|-----------------|------------------|

e||-----------------|-----------------|-----------------|-5----------------|
B||-----------------|-----------------|-----------------|-7----------------|
G|4-----------------|-----------------|-----------------|-7----------------|
D|4-------------7---|-----------------|-----------------|-7----------------|
A||-----------------|-----------------|-----------------|-5----------------|
E||-----------5---5-|-0---------------|-----------------|------------------|
                                      _____________________________________
                                      |1.               |2.                |
e||-10--------------|-----------------|-5---------------|-5----------------|
B||-10--------------|-------------7---|---7-8-----------|---7-8------------|
G|4-11--------------|o--------7-------|----------------o|---------5-7------|
D|4-12----------7---|o----7-----------|----------------o|-------------5----|
A||-12--------------|-5---------------|-----------------|------------------|
E||-10--------5---5-|-----------------|-----------------|------------------|

e||-----------------|-----------------|-----------------|------------------|
B||-----------------|/1210----8---7---|-6-5-------------|------------------|
G|4-------------9-7-|-----------------|-----7---5---3---|------------------|
D|4------/9-7-------|-----------------|---------------3-|------------------|
A||-7-5-------------|-----------------|-----------------|-3----------------|
E||-----------------|-----------------|-----------------|------------------|

e||-----------------|-----------------|-----------------|------------------|
B||-6-5-------------|-----------------|-----------------|------------------|
G|4-----7---5---3---|-2---------------|-----------------|------------------|
D|4-----------------|-----5---3---2---|-----------------|------------------|
A||-----------------|---------------3-|-5---------------|------------------|
E||-----------------|-----------------|-----------------|------------------|

Chorus:
    D       Em                C   C     C       D                 C   D
e||-5~------7~------|---------3.--3.--|-3---/---5-------|---------3---5----|
B||-7~------8~------|---------5.--5.--|-5---/---7-------|---------5---7----|
G|4-7~------9~------|---------5.--5.--|-5---/---7-------|---------5---7----|
D|4-7~------9~------|---------5.--5.--|-5---/---7-------|---------5---7----|
A||-5~------7~------|---------3.--3.--|-3---/---5-------|---------3---5----|
E||-----------------|-----------------|-----------------|------------------|

    D       Em  C         C   C   C     C       D                 C   D
e||-5~------7~--3---|-----3---3.--3.--|-3---/---5-------|---------3---5----|
B||-7~------8~--5---|-----5---5.--5.--|-5---/---7-------|---------5---7----|
G|4-7~------9~--5---|-----5---5.--5.--|-5---/---7-------|---------5---7----|
D|4-7~------9~--5---|-----5---5.--5.--|-5---/---7-------|---------5---7----|
A||-5~------7~--3---|-----3---3.--3.--|-3---/---5-------|---------3---5----|
E||-----------------|-----------------|-----------------|------------------|

    D       Em                C   C     C       D                 C   D
e||-5~------7~------|---------3.--3.--|-3---/---5-------|---------3---5----|
B||-7~------8~------|---------5.--5.--|-5---/---7-------|---------5---7----|
G|4-7~------9~------|---------5.--5.--|-5---/---7-------|---------5---7----|
D|4-7~------9~------|---------5.--5.--|-5---/---7-------|---------5---7----|
A||-5~------7~------|---------3.--3.--|-3---/---5-------|---------3---5----|
E||-----------------|-----------------|-----------------|------------------|

    D       Em  C         C   C   C     C       D
e||-5~------7~--3---|-----3---3.--3.--|-3---/---5-------|------------------|
B||-7~------8~--5---|-----5---5.--5.--|-5---/---7-------|----------------\-|
G|4-7~------9~--5---|-----5---5.--5.--|-5---/---7-------|----------------\-|
D|4-7~------9~--5---|-----5---5.--5.--|-5---/---7-------|----------------\-|
A||-5~------7~--3---|-----3---3.--3.--|-3---/---5-------|----------------\-|
E||-----------------|-----------------|-----------------|------------------|

Bridge:

    D                         C C       C   D             G   A
e||-----------------|-----------------|-----------------|-----------------|
B||-----------------|-----------------|-----------------|-----------------|
G|4-7---------------|---------5-5-----|-5---7-----------|-----------------|
D|4-7---------------|---------5-5-----|-5---7-----------|-5---7-----------|
A||-5---------------|---------3-3-----|-3---5-----------|-5---7-----------|
E||-----------------|-----------------|-----------------|-3---5-----------|

Verse (All Power Chords. Listen to the record to get the strumming pattern):

D5                    C5 C5
Every ....... holiday
D5                      C5 C5
when .............. mine
D5                       C5 C5
The ............... time
D5            Fill 1
with .... love

Fill 1:

    G       A
e||-----------------|
B||-----------------|
G|4-----------------|
D|4-----5-------7---|
A||---5-------7-----|
E||-3-------5-------|

Bridge 2 (All Power Chords. Listen to the record to get the strumming
pattern):

B5                         A5
All I .................... to get me ..
B5                             D5  D5  Em5
'Cause baby .................. halfway high

Chorus:

Bridge (with Fill):

    D                         C C       C   D             G   A
e||-----------------|-----------------|-----------------|-----------------|
B||-----------------|-----------------|-----------------|---p--h-p--------|
G|4-7---------------|---------5-5-----|-5---7-----------|--7-5-575--------|
D|4-7---------------|---------5-5-----|-5---7-----------|-7---7---7---5-3-|
A||-5---------------|---------3-3-----|-3---5-----------|-----------------|
E||-----------------|-----------------|-----------------|-----------------|

    D                         C C       C   D             G   A
e||-----------------|-----------------|-----------------|-----------------|
B||-----------------|-----------------|-----------------|-----------------|
G|4-7---------------|---------5-5-----|-5---7-----------|-----------------|
D|4-7---------------|---------5-5-----|-5---7-----------|-5---7-----------|
A||-5---------------|---------3-3-----|-3---5-----------|-5---7-----------|
E||-----------------|-----------------|-----------------|-3---5-----------|

Bridge 2 + Solo:

Later

Chorus and Fade:
Suggest correction
Give kudos to tab author, rate the tab!
1 2 3 4 5
comments
print report bad tab
guest
You may want to rate the tab now too:
select rating
Wanna post a correction for this tab? Suggest correction